ISO-10303-21;
HEADER;
FILE_DESCRIPTION (( 'STEP AP214' ),
    '1' );
FILE_NAME ('RL-104-1.step',
    '2018-04-12T20:57:41',
    ( '' ),
    ( '' ),
    'SwSTEP 2.0',
    'SolidWorks 2017',
    '' );
FILE_SCHEMA (( 'AUTOMOTIVE_DESIGN' ));
ENDSEC;

DATA;
#1 = CARTESIAN_POINT ( 'NONE',  ( 0.0000000000000000000, 0.0000000000000000000, 0.0000000000000000000 ) ) ;
#2 = DIRECTION ( 'NONE',  ( -0.0000000000000000000, -0.0000000000000000000, -1.000000000000000000 ) ) ;
#3 = FACE_OUTER_BOUND ( 'NONE', #233, .T. ) ;
#4 = ORIENTED_EDGE ( 'NONE', *, *, #28, .F. ) ;
#5 = CARTESIAN_POINT ( 'NONE',  ( 0.0000000000000000000, 0.0000000000000000000, 0.2480314960629921300 ) ) ;
#6 = DIRECTION ( 'NONE',  ( 0.0000000000000000000, 0.0000000000000000000, 1.000000000000000000 ) ) ;
#7 = CARTESIAN_POINT ( 'NONE',  ( 0.0000000000000000000, 0.0000000000000000000, 0.05905511811023622700 ) ) ;
#8 = ADVANCED_BREP_SHAPE_REPRESENTATION ( 'RL-104-1', ( #109, #277 ), #252 ) ;
#9 = VERTEX_POINT ( 'NONE', #208 ) ;
#10 = MECHANICAL_DESIGN_GEOMETRIC_PRESENTATION_REPRESENTATION (  '', ( #301 ), #192 ) ;
#11 = DIRECTION ( 'NONE',  ( -1.000000000000000000, 0.0000000000000000000, 0.0000000000000000000 ) ) ;
#12 = APPLICATION_PROTOCOL_DEFINITION ( 'draft international standard', 'automotive_design', 1998, #223 ) ;
#13 = LINE ( 'NONE', #43, #153 ) ;
#14 = CIRCLE ( 'NONE', #37, 0.8267716535433071700 ) ;
#15 = AXIS2_PLACEMENT_3D ( 'NONE', #1, #50, #309 ) ;
#16 = CYLINDRICAL_SURFACE ( 'NONE', #116, 0.8267716535433071700 ) ;
#17 = CARTESIAN_POINT ( 'NONE',  ( -0.9055118110236221000, 1.108932140960201700E-016, 0.0000000000000000000 ) ) ;
#18 = VERTEX_POINT ( 'NONE', #17 ) ;
#19 =( LENGTH_UNIT ( ) NAMED_UNIT ( * ) SI_UNIT ( $, .METRE. ) );
#20 = DIRECTION ( 'NONE',  ( -1.000000000000000000, 0.0000000000000000000, 0.0000000000000000000 ) ) ;
#21 = CIRCLE ( 'NONE', #211, 0.7874015748031496500 ) ;
#22 = DIRECTION ( 'NONE',  ( 0.0000000000000000000, 0.0000000000000000000, -1.000000000000000000 ) ) ;
#23 = DIRECTION ( 'NONE',  ( -1.000000000000000000, 0.0000000000000000000, 0.0000000000000000000 ) ) ;
#24 = SURFACE_SIDE_STYLE ('',( #201 ) ) ;
#25 = ADVANCED_FACE ( 'NONE', ( #62 ), #16, .T. ) ;
#26 = CYLINDRICAL_SURFACE ( 'NONE', #181, 0.7874015748031496500 ) ;
#27 = ORIENTED_EDGE ( 'NONE', *, *, #306, .T. ) ;
#28 = EDGE_CURVE ( 'NONE', #281, #18, #160, .T. ) ;
#29 = CARTESIAN_POINT ( 'NONE',  ( 0.0000000000000000000, 0.0000000000000000000, 0.2480314960629921300 ) ) ;
#30 = DIMENSIONAL_EXPONENTS ( 1.000000000000000000, 0.0000000000000000000, 0.0000000000000000000, 0.0000000000000000000, 0.0000000000000000000, 0.0000000000000000000, 0.0000000000000000000 ) ;
#31 = DIRECTION ( 'NONE',  ( -1.000000000000000000, 0.0000000000000000000, 0.0000000000000000000 ) ) ;
#32 = CARTESIAN_POINT ( 'NONE',  ( -0.7874015748031496500, 0.0000000000000000000, 0.2480314960629921300 ) ) ;
#33 = UNCERTAINTY_MEASURE_WITH_UNIT (LENGTH_MEASURE( 1.000000000000000100E-005 ), #283, 'distance_accuracy_value', 'NONE');
#34 = VECTOR ( 'NONE', #107, 39.37007874015748100 ) ;
#35 = DIRECTION ( 'NONE',  ( 1.000000000000000000, 0.0000000000000000000, 0.0000000000000000000 ) ) ;
#36 = LENGTH_MEASURE_WITH_UNIT ( LENGTH_MEASURE( 0.02539999999999999900 ), #202 );
#37 = AXIS2_PLACEMENT_3D ( 'NONE', #158, #221, #133 ) ;
#38 = SURFACE_STYLE_USAGE ( .BOTH. , #161 ) ;
#39 = FACE_BOUND ( 'NONE', #251, .T. ) ;
#40 = ORIENTED_EDGE ( 'NONE', *, *, #66, .F. ) ;
#41 = AXIS2_PLACEMENT_3D ( 'NONE', #213, #2, #23 ) ;
#42 = ORIENTED_EDGE ( 'NONE', *, *, #306, .F. ) ;
#43 = CARTESIAN_POINT ( 'NONE',  ( -0.9055118110236221000, 1.108932140960201700E-016, 0.2913385826771653900 ) ) ;
#44 = FACE_OUTER_BOUND ( 'NONE', #267, .T. ) ;
#45 = EDGE_LOOP ( 'NONE', ( #226, #186, #94, #178 ) ) ;
#46 = CARTESIAN_POINT ( 'NONE',  ( 0.0000000000000000000, 0.0000000000000000000, 0.0000000000000000000 ) ) ;
#47 = EDGE_CURVE ( 'NONE', #144, #49, #86, .T. ) ;
#48 = CARTESIAN_POINT ( 'NONE',  ( 0.0000000000000000000, 0.0000000000000000000, 0.2480314960629921300 ) ) ;
#49 = VERTEX_POINT ( 'NONE', #259 ) ;
#50 = DIRECTION ( 'NONE',  ( -0.0000000000000000000, -0.0000000000000000000, -1.000000000000000000 ) ) ;
#51 = DIMENSIONAL_EXPONENTS ( 1.000000000000000000, 0.0000000000000000000, 0.0000000000000000000, 0.0000000000000000000, 0.0000000000000000000, 0.0000000000000000000, 0.0000000000000000000 ) ;
#52 = AXIS2_PLACEMENT_3D ( 'NONE', #103, #240, #270 ) ;
#53 = DIRECTION ( 'NONE',  ( 0.0000000000000000000, 0.0000000000000000000, 1.000000000000000000 ) ) ;
#54 = DIMENSIONAL_EXPONENTS ( 1.000000000000000000, 0.0000000000000000000, 0.0000000000000000000, 0.0000000000000000000, 0.0000000000000000000, 0.0000000000000000000, 0.0000000000000000000 ) ;
#55 = ORIENTED_EDGE ( 'NONE', *, *, #96, .T. ) ;
#56 = CARTESIAN_POINT ( 'NONE',  ( 0.0000000000000000000, 0.0000000000000000000, 0.05905511811023620600 ) ) ;
#57 = CARTESIAN_POINT ( 'NONE',  ( 0.9055118110236221000, 0.0000000000000000000, 0.2913385826771653900 ) ) ;
#58 = VERTEX_POINT ( 'NONE', #70 ) ;
#59 = EDGE_CURVE ( 'NONE', #68, #140, #93, .T. ) ;
#60 = DIRECTION ( 'NONE',  ( -0.0000000000000000000, -0.0000000000000000000, -1.000000000000000000 ) ) ;
#61 = DIRECTION ( 'NONE',  ( 0.0000000000000000000, 0.0000000000000000000, 1.000000000000000000 ) ) ;
#62 = FACE_OUTER_BOUND ( 'NONE', #119, .T. ) ;
#63 = ORIENTED_EDGE ( 'NONE', *, *, #257, .F. ) ;
#64 = EDGE_CURVE ( 'NONE', #18, #122, #13, .T. ) ;
#65 = VERTEX_POINT ( 'NONE', #121 ) ;
#66 = EDGE_CURVE ( 'NONE', #140, #58, #303, .T. ) ;
#67 = PRESENTATION_STYLE_ASSIGNMENT (( #232 ) ) ;
#68 = VERTEX_POINT ( 'NONE', #212 ) ;
#69 = DIRECTION ( 'NONE',  ( 0.0000000000000000000, 0.0000000000000000000, 1.000000000000000000 ) ) ;
#70 = CARTESIAN_POINT ( 'NONE',  ( -0.8267716535433071700, 0.0000000000000000000, 0.05905511811023622700 ) ) ;
#71 = DIRECTION ( 'NONE',  ( -1.000000000000000000, 0.0000000000000000000, 0.0000000000000000000 ) ) ;
#72 = FACE_OUTER_BOUND ( 'NONE', #305, .T. ) ;
#73 = ORIENTED_EDGE ( 'NONE', *, *, #59, .F. ) ;
#74 = SURFACE_STYLE_FILL_AREA ( #111 ) ;
#75 = PRODUCT_DEFINITION_CONTEXT ( 'detailed design', #297, 'design' ) ;
#76 = DIRECTION ( 'NONE',  ( -1.000000000000000000, 0.0000000000000000000, 0.0000000000000000000 ) ) ;
#77 = CARTESIAN_POINT ( 'NONE',  ( 0.7874015748031496500, 9.642888182262624300E-017, 0.2480314960629921300 ) ) ;
#78 = LINE ( 'NONE', #32, #299 ) ;
#79 = COLOUR_RGB ( '',0.8000000000000000400, 0.8000000000000000400, 0.8000000000000000400 ) ;
#80 = DIRECTION ( 'NONE',  ( -0.0000000000000000000, -0.0000000000000000000, -1.000000000000000000 ) ) ;
#81 = VECTOR ( 'NONE', #265, 39.37007874015748100 ) ;
#82 = ORIENTED_EDGE ( 'NONE', *, *, #47, .F. ) ;
#83 = PLANE ( 'NONE',  #52 ) ;
#84 = ADVANCED_FACE ( 'NONE', ( #139 ), #125, .T. ) ;
#85 = APPLICATION_PROTOCOL_DEFINITION ( 'draft international standard', 'automotive_design', 1998, #297 ) ;
#86 = CIRCLE ( 'NONE', #282, 0.7874015748031496500 ) ;
#87 = AXIS2_PLACEMENT_3D ( 'NONE', #29, #243, #200 ) ;
#88 = UNCERTAINTY_MEASURE_WITH_UNIT (LENGTH_MEASURE( 1.000000000000000100E-005 ), #157, 'distance_accuracy_value', 'NONE');
#89 = ORIENTED_EDGE ( 'NONE', *, *, #257, .T. ) ;
#90 = PRODUCT_RELATED_PRODUCT_CATEGORY ( 'part', '', ( #95 ) ) ;
#91 = AXIS2_PLACEMENT_3D ( 'NONE', #7, #291, #193 ) ;
#92 = CIRCLE ( 'NONE', #170, 0.9055118110236221000 ) ;
#93 = CIRCLE ( 'NONE', #199, 0.8267716535433071700 ) ;
#94 = ORIENTED_EDGE ( 'NONE', *, *, #247, .T. ) ;
#95 = PRODUCT ( 'RL-104-1', 'RL-104-1', '', ( #298 ) ) ;
#96 = EDGE_CURVE ( 'NONE', #18, #281, #254, .T. ) ;
#97 = CARTESIAN_POINT ( 'NONE',  ( -0.7874015748031496500, 0.0000000000000000000, 0.2559055118110236700 ) ) ;
#98 = CARTESIAN_POINT ( 'NONE',  ( 0.0000000000000000000, 0.0000000000000000000, 0.2913385826771653900 ) ) ;
#99 = LINE ( 'NONE', #57, #34 ) ;
#100 = DIRECTION ( 'NONE',  ( 1.000000000000000000, 0.0000000000000000000, 0.0000000000000000000 ) ) ;
#101 = EDGE_CURVE ( 'NONE', #9, #290, #21, .T. ) ;
#102 = CARTESIAN_POINT ( 'NONE',  ( 0.0000000000000000000, 0.0000000000000000000, 0.2559055118110236700 ) ) ;
#103 = CARTESIAN_POINT ( 'NONE',  ( 0.0000000000000000000, 0.0000000000000000000, 0.2559055118110236700 ) ) ;
#104 = EDGE_LOOP ( 'NONE', ( #196, #204, #239, #63 ) ) ;
#105 = CARTESIAN_POINT ( 'NONE',  ( 0.0000000000000000000, 0.0000000000000000000, 0.05905511811023622700 ) ) ;
#106 = CARTESIAN_POINT ( 'NONE',  ( 0.8267716535433071700, 1.012503259137575500E-016, 0.1771653543307086800 ) ) ;
#107 = DIRECTION ( 'NONE',  ( 0.0000000000000000000, 0.0000000000000000000, 1.000000000000000000 ) ) ;
#108 = PRESENTATION_LAYER_ASSIGNMENT (  '', '', ( #301 ) ) ;
#109 = MANIFOLD_SOLID_BREP ( '1', #154 ) ;
#110 = ORIENTED_EDGE ( 'NONE', *, *, #136, .F. ) ;
#111 = FILL_AREA_STYLE ('',( #268 ) ) ;
#112 = PRESENTATION_STYLE_ASSIGNMENT (( #38 ) ) ;
#113 =( NAMED_UNIT ( * ) SI_UNIT ( $, .STERADIAN. ) SOLID_ANGLE_UNIT ( ) );
#114 = CIRCLE ( 'NONE', #262, 0.9055118110236221000 ) ;
#115 = ORIENTED_EDGE ( 'NONE', *, *, #28, .T. ) ;
#116 = AXIS2_PLACEMENT_3D ( 'NONE', #253, #307, #71 ) ;
#117 = ORIENTED_EDGE ( 'NONE', *, *, #231, .F. ) ;
#118 = ORIENTED_EDGE ( 'NONE', *, *, #231, .T. ) ;
#119 = EDGE_LOOP ( 'NONE', ( #209, #27, #163, #40 ) ) ;
#120 = DIRECTION ( 'NONE',  ( 1.000000000000000000, 0.0000000000000000000, 0.0000000000000000000 ) ) ;
#121 = CARTESIAN_POINT ( 'NONE',  ( 0.9055118110236221000, 0.0000000000000000000, 0.05905511811023620600 ) ) ;
#122 = VERTEX_POINT ( 'NONE', #287 ) ;
#123 = DIRECTION ( 'NONE',  ( -1.000000000000000000, 0.0000000000000000000, -0.0000000000000000000 ) ) ;
#124 = DIRECTION ( 'NONE',  ( -1.000000000000000000, 0.0000000000000000000, 0.0000000000000000000 ) ) ;
#125 = CYLINDRICAL_SURFACE ( 'NONE', #159, 0.8267716535433071700 ) ;
#126 = SHAPE_DEFINITION_REPRESENTATION ( #279, #8 ) ;
#127 = LINE ( 'NONE', #106, #250 ) ;
#128 = CARTESIAN_POINT ( 'NONE',  ( 0.0000000000000000000, 0.0000000000000000000, 0.2913385826771653900 ) ) ;
#129 = CARTESIAN_POINT ( 'NONE',  ( 0.9055118110236221000, 0.0000000000000000000, 0.0000000000000000000 ) ) ;
#130 = AXIS2_PLACEMENT_3D ( 'NONE', #102, #172, #234 ) ;
#131 =( LENGTH_UNIT ( ) NAMED_UNIT ( * ) SI_UNIT ( $, .METRE. ) );
#132 = ORIENTED_EDGE ( 'NONE', *, *, #247, .F. ) ;
#133 = DIRECTION ( 'NONE',  ( -1.000000000000000000, 0.0000000000000000000, 0.0000000000000000000 ) ) ;
#134 =( NAMED_UNIT ( * ) SI_UNIT ( $, .STERADIAN. ) SOLID_ANGLE_UNIT ( ) );
#135 = DIRECTION ( 'NONE',  ( 1.000000000000000000, 0.0000000000000000000, 0.0000000000000000000 ) ) ;
#136 = EDGE_CURVE ( 'NONE', #49, #144, #280, .T. ) ;
#137 = VECTOR ( 'NONE', #216, 39.37007874015748100 ) ;
#138 = ORIENTED_EDGE ( 'NONE', *, *, #64, .F. ) ;
#139 = FACE_OUTER_BOUND ( 'NONE', #191, .T. ) ;
#140 = VERTEX_POINT ( 'NONE', #261 ) ;
#141 = FACE_OUTER_BOUND ( 'NONE', #104, .T. ) ;
#142 = DIRECTION ( 'NONE',  ( -0.0000000000000000000, -0.0000000000000000000, -1.000000000000000000 ) ) ;
#143 = LINE ( 'NONE', #77, #81 ) ;
#144 = VERTEX_POINT ( 'NONE', #97 ) ;
#145 = PRESENTATION_LAYER_ASSIGNMENT (  '', '', ( #227 ) ) ;
#146 =( NAMED_UNIT ( * ) PLANE_ANGLE_UNIT ( ) SI_UNIT ( $, .RADIAN. ) );
#147 = CARTESIAN_POINT ( 'NONE',  ( 0.0000000000000000000, 0.0000000000000000000, 0.0000000000000000000 ) ) ;
#148 = ORIENTED_EDGE ( 'NONE', *, *, #47, .T. ) ;
#149 = AXIS2_PLACEMENT_3D ( 'NONE', #98, #286, #100 ) ;
#150 = PLANE ( 'NONE',  #228 ) ;
#151 = FILL_AREA_STYLE ('',( #235 ) ) ;
#152 = DIRECTION ( 'NONE',  ( -0.0000000000000000000, -0.0000000000000000000, -1.000000000000000000 ) ) ;
#153 = VECTOR ( 'NONE', #69, 39.37007874015748100 ) ;
#154 = CLOSED_SHELL ( 'NONE', ( #156, #25, #242, #171, #289, #293, #84, #220, #263, #215 ) ) ;
#155 = DIRECTION ( 'NONE',  ( 0.0000000000000000000, 0.0000000000000000000, 1.000000000000000000 ) ) ;
#156 = ADVANCED_FACE ( 'NONE', ( #141 ), #249, .T. ) ;
#157 =( CONVERSION_BASED_UNIT ( 'INCH', #194 ) LENGTH_UNIT ( ) NAMED_UNIT ( #54 ) );
#158 = CARTESIAN_POINT ( 'NONE',  ( 0.0000000000000000000, 0.0000000000000000000, 0.05905511811023622700 ) ) ;
#159 = AXIS2_PLACEMENT_3D ( 'NONE', #173, #284, #20 ) ;
#160 = CIRCLE ( 'NONE', #205, 0.9055118110236221000 ) ;
#161 = SURFACE_SIDE_STYLE ('',( #74 ) ) ;
#162 = ORIENTED_EDGE ( 'NONE', *, *, #59, .T. ) ;
#163 = ORIENTED_EDGE ( 'NONE', *, *, #224, .T. ) ;
#164 = EDGE_CURVE ( 'NONE', #290, #9, #206, .T. ) ;
#165 = COLOUR_RGB ( '',0.8000000000000000400, 0.8000000000000000400, 0.8000000000000000400 ) ;
#166 = DIRECTION ( 'NONE',  ( -1.000000000000000000, 0.0000000000000000000, 0.0000000000000000000 ) ) ;
#167 = ORIENTED_EDGE ( 'NONE', *, *, #66, .T. ) ;
#168 = CARTESIAN_POINT ( 'NONE',  ( 0.0000000000000000000, 0.0000000000000000000, 0.2480314960629921300 ) ) ;
#169 = ORIENTED_EDGE ( 'NONE', *, *, #164, .T. ) ;
#170 = AXIS2_PLACEMENT_3D ( 'NONE', #295, #177, #35 ) ;
#171 = ADVANCED_FACE ( 'NONE', ( #195 ), #214, .T. ) ;
#172 = DIRECTION ( 'NONE',  ( 0.0000000000000000000, 0.0000000000000000000, 1.000000000000000000 ) ) ;
#173 = CARTESIAN_POINT ( 'NONE',  ( 0.0000000000000000000, 0.0000000000000000000, 0.1771653543307086800 ) ) ;
#174 = FACE_OUTER_BOUND ( 'NONE', #260, .T. ) ;
#175 = ORIENTED_EDGE ( 'NONE', *, *, #269, .F. ) ;
#176 =( GEOMETRIC_REPRESENTATION_CONTEXT ( 3 ) GLOBAL_UNCERTAINTY_ASSIGNED_CONTEXT ( ( #33 ) ) GLOBAL_UNIT_ASSIGNED_CONTEXT ( ( #283, #146, #264 ) ) REPRESENTATION_CONTEXT ( 'NONE', 'WORKASPACE' ) );
#177 = DIRECTION ( 'NONE',  ( -0.0000000000000000000, -0.0000000000000000000, -1.000000000000000000 ) ) ;
#178 = ORIENTED_EDGE ( 'NONE', *, *, #164, .F. ) ;
#179 = CARTESIAN_POINT ( 'NONE',  ( 0.0000000000000000000, 0.0000000000000000000, 0.0000000000000000000 ) ) ;
#180 = DIRECTION ( 'NONE',  ( 1.000000000000000000, 0.0000000000000000000, 0.0000000000000000000 ) ) ;
#181 = AXIS2_PLACEMENT_3D ( 'NONE', #198, #218, #11 ) ;
#182 = ORIENTED_EDGE ( 'NONE', *, *, #101, .F. ) ;
#183 = AXIS2_PLACEMENT_3D ( 'NONE', #48, #210, #124 ) ;
#184 = AXIS2_PLACEMENT_3D ( 'NONE', #147, #22, #123 ) ;
#185 = CIRCLE ( 'NONE', #190, 0.8267716535433071700 ) ;
#186 = ORIENTED_EDGE ( 'NONE', *, *, #136, .T. ) ;
#187 = DIRECTION ( 'NONE',  ( -0.0000000000000000000, -0.0000000000000000000, -1.000000000000000000 ) ) ;
#188 = EDGE_CURVE ( 'NONE', #140, #68, #225, .T. ) ;
#189 = EDGE_LOOP ( 'NONE', ( #148, #294, #182, #132 ) ) ;
#190 = AXIS2_PLACEMENT_3D ( 'NONE', #105, #6, #31 ) ;
#191 = EDGE_LOOP ( 'NONE', ( #42, #162, #167, #300 ) ) ;
#192 =( GEOMETRIC_REPRESENTATION_CONTEXT ( 3 ) GLOBAL_UNCERTAINTY_ASSIGNED_CONTEXT ( ( #236 ) ) GLOBAL_UNIT_ASSIGNED_CONTEXT ( ( #273, #248, #113 ) ) REPRESENTATION_CONTEXT ( 'NONE', 'WORKASPACE' ) );
#193 = DIRECTION ( 'NONE',  ( -1.000000000000000000, 0.0000000000000000000, -0.0000000000000000000 ) ) ;
#194 = LENGTH_MEASURE_WITH_UNIT ( LENGTH_MEASURE( 0.02539999999999999900 ), #131 );
#195 = FACE_OUTER_BOUND ( 'NONE', #203, .T. ) ;
#196 = ORIENTED_EDGE ( 'NONE', *, *, #96, .F. ) ;
#197 =( NAMED_UNIT ( * ) PLANE_ANGLE_UNIT ( ) SI_UNIT ( $, .RADIAN. ) );
#198 = CARTESIAN_POINT ( 'NONE',  ( 0.0000000000000000000, 0.0000000000000000000, 0.2480314960629921300 ) ) ;
#199 = AXIS2_PLACEMENT_3D ( 'NONE', #278, #142, #304 ) ;
#200 = DIRECTION ( 'NONE',  ( -1.000000000000000000, 0.0000000000000000000, 0.0000000000000000000 ) ) ;
#201 = SURFACE_STYLE_FILL_AREA ( #151 ) ;
#202 =( LENGTH_UNIT ( ) NAMED_UNIT ( * ) SI_UNIT ( $, .METRE. ) );
#203 = EDGE_LOOP ( 'NONE', ( #115, #55 ) ) ;
#204 = ORIENTED_EDGE ( 'NONE', *, *, #64, .T. ) ;
#205 = AXIS2_PLACEMENT_3D ( 'NONE', #46, #187, #120 ) ;
#206 = CIRCLE ( 'NONE', #183, 0.7874015748031496500 ) ;
#207 = EDGE_CURVE ( 'NONE', #49, #290, #143, .T. ) ;
#208 = CARTESIAN_POINT ( 'NONE',  ( -0.7874015748031496500, 0.0000000000000000000, 0.2480314960629921300 ) ) ;
#209 = ORIENTED_EDGE ( 'NONE', *, *, #188, .T. ) ;
#210 = DIRECTION ( 'NONE',  ( 0.0000000000000000000, 0.0000000000000000000, 1.000000000000000000 ) ) ;
#211 = AXIS2_PLACEMENT_3D ( 'NONE', #5, #53, #76 ) ;
#212 = CARTESIAN_POINT ( 'NONE',  ( 0.8267716535433071700, 1.012503259137575500E-016, 0.2559055118110236700 ) ) ;
#213 = CARTESIAN_POINT ( 'NONE',  ( 0.0000000000000000000, 0.0000000000000000000, 0.2559055118110236700 ) ) ;
#214 = PLANE ( 'NONE',  #184 ) ;
#215 = ADVANCED_FACE ( 'NONE', ( #3 ), #150, .F. ) ;
#216 = DIRECTION ( 'NONE',  ( -0.0000000000000000000, -0.0000000000000000000, -1.000000000000000000 ) ) ;
#217 = CYLINDRICAL_SURFACE ( 'NONE', #87, 0.7874015748031496500 ) ;
#218 = DIRECTION ( 'NONE',  ( -0.0000000000000000000, -0.0000000000000000000, -1.000000000000000000 ) ) ;
#219 = MECHANICAL_DESIGN_GEOMETRIC_PRESENTATION_REPRESENTATION (  '', ( #227 ), #176 ) ;
#220 = ADVANCED_FACE ( 'NONE', ( #72, #272 ), #83, .F. ) ;
#221 = DIRECTION ( 'NONE',  ( 0.0000000000000000000, 0.0000000000000000000, 1.000000000000000000 ) ) ;
#222 = CYLINDRICAL_SURFACE ( 'NONE', #296, 0.9055118110236221000 ) ;
#223 = APPLICATION_CONTEXT ( 'automotive_design' ) ;
#224 = EDGE_CURVE ( 'NONE', #275, #58, #14, .T. ) ;
#225 = CIRCLE ( 'NONE', #41, 0.8267716535433071700 ) ;
#226 = ORIENTED_EDGE ( 'NONE', *, *, #207, .F. ) ;
#227 = STYLED_ITEM ( 'NONE', ( #67 ), #109 ) ;
#228 = AXIS2_PLACEMENT_3D ( 'NONE', #168, #237, #288 ) ;
#229 = ORIENTED_EDGE ( 'NONE', *, *, #292, .F. ) ;
#230 = CARTESIAN_POINT ( 'NONE',  ( -0.8267716535433071700, 0.0000000000000000000, 0.1771653543307086800 ) ) ;
#231 = EDGE_CURVE ( 'NONE', #65, #122, #114, .T. ) ;
#232 = SURFACE_STYLE_USAGE ( .BOTH. , #24 ) ;
#233 = EDGE_LOOP ( 'NONE', ( #255, #169 ) ) ;
#234 = DIRECTION ( 'NONE',  ( -1.000000000000000000, 0.0000000000000000000, 0.0000000000000000000 ) ) ;
#235 = FILL_AREA_STYLE_COLOUR ( '', #165 ) ;
#236 = UNCERTAINTY_MEASURE_WITH_UNIT (LENGTH_MEASURE( 1.000000000000000100E-005 ), #273, 'distance_accuracy_value', 'NONE');
#237 = DIRECTION ( 'NONE',  ( 0.0000000000000000000, 0.0000000000000000000, -1.000000000000000000 ) ) ;
#238 = LENGTH_MEASURE_WITH_UNIT ( LENGTH_MEASURE( 0.02539999999999999900 ), #19 );
#239 = ORIENTED_EDGE ( 'NONE', *, *, #292, .T. ) ;
#240 = DIRECTION ( 'NONE',  ( 0.0000000000000000000, 0.0000000000000000000, -1.000000000000000000 ) ) ;
#241 = PRODUCT_DEFINITION ( 'UNKNOWN', '', #274, #75 ) ;
#242 = ADVANCED_FACE ( 'NONE', ( #258 ), #26, .F. ) ;
#243 = DIRECTION ( 'NONE',  ( -0.0000000000000000000, -0.0000000000000000000, -1.000000000000000000 ) ) ;
#244 = EDGE_LOOP ( 'NONE', ( #82, #110 ) ) ;
#245 = DIRECTION ( 'NONE',  ( 1.000000000000000000, 0.0000000000000000000, 0.0000000000000000000 ) ) ;
#246 = CARTESIAN_POINT ( 'NONE',  ( 0.7874015748031496500, 9.642888182262624300E-017, 0.2480314960629921300 ) ) ;
#247 = EDGE_CURVE ( 'NONE', #144, #9, #78, .T. ) ;
#248 =( NAMED_UNIT ( * ) PLANE_ANGLE_UNIT ( ) SI_UNIT ( $, .RADIAN. ) );
#249 = CYLINDRICAL_SURFACE ( 'NONE', #149, 0.9055118110236221000 ) ;
#250 = VECTOR ( 'NONE', #152, 39.37007874015748100 ) ;
#251 = EDGE_LOOP ( 'NONE', ( #175, #308 ) ) ;
#252 =( GEOMETRIC_REPRESENTATION_CONTEXT ( 3 ) GLOBAL_UNCERTAINTY_ASSIGNED_CONTEXT ( ( #88 ) ) GLOBAL_UNIT_ASSIGNED_CONTEXT ( ( #157, #197, #134 ) ) REPRESENTATION_CONTEXT ( 'NONE', 'WORKASPACE' ) );
#253 = CARTESIAN_POINT ( 'NONE',  ( 0.0000000000000000000, 0.0000000000000000000, 0.1771653543307086800 ) ) ;
#254 = CIRCLE ( 'NONE', #15, 0.9055118110236221000 ) ;
#255 = ORIENTED_EDGE ( 'NONE', *, *, #101, .T. ) ;
#256 = DIRECTION ( 'NONE',  ( 0.0000000000000000000, 0.0000000000000000000, 1.000000000000000000 ) ) ;
#257 = EDGE_CURVE ( 'NONE', #281, #65, #99, .T. ) ;
#258 = FACE_OUTER_BOUND ( 'NONE', #189, .T. ) ;
#259 = CARTESIAN_POINT ( 'NONE',  ( 0.7874015748031496500, 9.642888182262624300E-017, 0.2559055118110236700 ) ) ;
#260 = EDGE_LOOP ( 'NONE', ( #117, #229 ) ) ;
#261 = CARTESIAN_POINT ( 'NONE',  ( -0.8267716535433071700, 0.0000000000000000000, 0.2559055118110236700 ) ) ;
#262 = AXIS2_PLACEMENT_3D ( 'NONE', #56, #80, #245 ) ;
#263 = ADVANCED_FACE ( 'NONE', ( #276 ), #217, .F. ) ;
#264 =( NAMED_UNIT ( * ) SI_UNIT ( $, .STERADIAN. ) SOLID_ANGLE_UNIT ( ) );
#265 = DIRECTION ( 'NONE',  ( -0.0000000000000000000, -0.0000000000000000000, -1.000000000000000000 ) ) ;
#266 = CARTESIAN_POINT ( 'NONE',  ( 0.8267716535433071700, 1.012503259137575500E-016, 0.05905511811023622700 ) ) ;
#267 = EDGE_LOOP ( 'NONE', ( #138, #4, #89, #118 ) ) ;
#268 = FILL_AREA_STYLE_COLOUR ( '', #79 ) ;
#269 = EDGE_CURVE ( 'NONE', #58, #275, #185, .T. ) ;
#270 = DIRECTION ( 'NONE',  ( -1.000000000000000000, 0.0000000000000000000, -0.0000000000000000000 ) ) ;
#271 = PLANE ( 'NONE',  #91 ) ;
#272 = FACE_BOUND ( 'NONE', #244, .T. ) ;
#273 =( CONVERSION_BASED_UNIT ( 'INCH', #36 ) LENGTH_UNIT ( ) NAMED_UNIT ( #51 ) );
#274 = PRODUCT_DEFINITION_FORMATION_WITH_SPECIFIED_SOURCE ( 'ANY', '', #95, .NOT_KNOWN. ) ;
#275 = VERTEX_POINT ( 'NONE', #266 ) ;
#276 = FACE_OUTER_BOUND ( 'NONE', #45, .T. ) ;
#277 = AXIS2_PLACEMENT_3D ( 'NONE', #179, #61, #135 ) ;
#278 = CARTESIAN_POINT ( 'NONE',  ( 0.0000000000000000000, 0.0000000000000000000, 0.2559055118110236700 ) ) ;
#279 = PRODUCT_DEFINITION_SHAPE ( 'NONE', 'NONE',  #241 ) ;
#280 = CIRCLE ( 'NONE', #130, 0.7874015748031496500 ) ;
#281 = VERTEX_POINT ( 'NONE', #129 ) ;
#282 = AXIS2_PLACEMENT_3D ( 'NONE', #302, #256, #166 ) ;
#283 =( CONVERSION_BASED_UNIT ( 'INCH', #238 ) LENGTH_UNIT ( ) NAMED_UNIT ( #30 ) );
#284 = DIRECTION ( 'NONE',  ( -0.0000000000000000000, -0.0000000000000000000, -1.000000000000000000 ) ) ;
#285 = ORIENTED_EDGE ( 'NONE', *, *, #188, .F. ) ;
#286 = DIRECTION ( 'NONE',  ( 0.0000000000000000000, 0.0000000000000000000, 1.000000000000000000 ) ) ;
#287 = CARTESIAN_POINT ( 'NONE',  ( -0.9055118110236221000, 1.108932140960201700E-016, 0.05905511811023620600 ) ) ;
#288 = DIRECTION ( 'NONE',  ( -1.000000000000000000, 0.0000000000000000000, -0.0000000000000000000 ) ) ;
#289 = ADVANCED_FACE ( 'NONE', ( #44 ), #222, .T. ) ;
#290 = VERTEX_POINT ( 'NONE', #246 ) ;
#291 = DIRECTION ( 'NONE',  ( 0.0000000000000000000, 0.0000000000000000000, -1.000000000000000000 ) ) ;
#292 = EDGE_CURVE ( 'NONE', #122, #65, #92, .T. ) ;
#293 = ADVANCED_FACE ( 'NONE', ( #174, #39 ), #271, .F. ) ;
#294 = ORIENTED_EDGE ( 'NONE', *, *, #207, .T. ) ;
#295 = CARTESIAN_POINT ( 'NONE',  ( 0.0000000000000000000, 0.0000000000000000000, 0.05905511811023620600 ) ) ;
#296 = AXIS2_PLACEMENT_3D ( 'NONE', #128, #155, #180 ) ;
#297 = APPLICATION_CONTEXT ( 'automotive_design' ) ;
#298 = PRODUCT_CONTEXT ( 'NONE', #223, 'mechanical' ) ;
#299 = VECTOR ( 'NONE', #60, 39.37007874015748100 ) ;
#300 = ORIENTED_EDGE ( 'NONE', *, *, #269, .T. ) ;
#301 = STYLED_ITEM ( 'NONE', ( #112 ), #8 ) ;
#302 = CARTESIAN_POINT ( 'NONE',  ( 0.0000000000000000000, 0.0000000000000000000, 0.2559055118110236700 ) ) ;
#303 = LINE ( 'NONE', #230, #137 ) ;
#304 = DIRECTION ( 'NONE',  ( -1.000000000000000000, 0.0000000000000000000, 0.0000000000000000000 ) ) ;
#305 = EDGE_LOOP ( 'NONE', ( #285, #73 ) ) ;
#306 = EDGE_CURVE ( 'NONE', #68, #275, #127, .T. ) ;
#307 = DIRECTION ( 'NONE',  ( -0.0000000000000000000, -0.0000000000000000000, -1.000000000000000000 ) ) ;
#308 = ORIENTED_EDGE ( 'NONE', *, *, #224, .F. ) ;
#309 = DIRECTION ( 'NONE',  ( 1.000000000000000000, 0.0000000000000000000, 0.0000000000000000000 ) ) ;
ENDSEC;
END-ISO-10303-21;
