ISO-10303-21;
HEADER;
FILE_DESCRIPTION (( 'STEP AP214' ),
    '1' );
FILE_NAME ('RL-104.step',
    '2018-04-12T20:57:26',
    ( '' ),
    ( '' ),
    'SwSTEP 2.0',
    'SolidWorks 2017',
    '' );
FILE_SCHEMA (( 'AUTOMOTIVE_DESIGN' ));
ENDSEC;

DATA;
#1 = DIRECTION ( 'NONE',  ( -0.0000000000000000000, -0.0000000000000000000, -1.000000000000000000 ) ) ;
#2 = CARTESIAN_POINT ( 'NONE',  ( -0.8267716535433071700, 0.0000000000000000000, 0.05905511811023622700 ) ) ;
#3 = PRODUCT ( 'RL-104', 'RL-104', '', ( #105 ) ) ;
#4 =( LENGTH_UNIT ( ) NAMED_UNIT ( * ) SI_UNIT ( $, .METRE. ) );
#5 = DIRECTION ( 'NONE',  ( -1.000000000000000000, 0.0000000000000000000, 0.0000000000000000000 ) ) ;
#6 = EDGE_CURVE ( 'NONE', #137, #227, #17, .T. ) ;
#7 = VERTEX_POINT ( 'NONE', #55 ) ;
#8 = AXIS2_PLACEMENT_3D ( 'NONE', #36, #240, #197 ) ;
#9 =( NAMED_UNIT ( * ) SI_UNIT ( $, .STERADIAN. ) SOLID_ANGLE_UNIT ( ) );
#10 = CARTESIAN_POINT ( 'NONE',  ( 0.0000000000000000000, 0.0000000000000000000, 0.2480314960629921300 ) ) ;
#11 = EDGE_CURVE ( 'NONE', #302, #7, #114, .T. ) ;
#12 = EDGE_LOOP ( 'NONE', ( #73, #99, #282, #95 ) ) ;
#13 = DIRECTION ( 'NONE',  ( -1.000000000000000000, 0.0000000000000000000, -0.0000000000000000000 ) ) ;
#14 = FACE_OUTER_BOUND ( 'NONE', #184, .T. ) ;
#15 = DIRECTION ( 'NONE',  ( 0.0000000000000000000, 0.0000000000000000000, 1.000000000000000000 ) ) ;
#16 = AXIS2_PLACEMENT_3D ( 'NONE', #162, #23, #83 ) ;
#17 = CIRCLE ( 'NONE', #113, 0.9055118110236221000 ) ;
#18 = SHAPE_DEFINITION_REPRESENTATION ( #206, #186 ) ;
#19 = FACE_OUTER_BOUND ( 'NONE', #134, .T. ) ;
#20 = EDGE_LOOP ( 'NONE', ( #292, #204, #200, #54 ) ) ;
#21 = COLOUR_RGB ( '',0.8000000000000000400, 0.8000000000000000400, 0.8000000000000000400 ) ;
#22 = AXIS2_PLACEMENT_3D ( 'NONE', #169, #141, #78 ) ;
#23 = DIRECTION ( 'NONE',  ( -0.0000000000000000000, -0.0000000000000000000, -1.000000000000000000 ) ) ;
#24 = FILL_AREA_STYLE_COLOUR ( '', #275 ) ;
#25 = ORIENTED_EDGE ( 'NONE', *, *, #256, .T. ) ;
#26 = CIRCLE ( 'NONE', #90, 0.8267716535433071700 ) ;
#27 = CARTESIAN_POINT ( 'NONE',  ( 0.9055118110236221000, 0.0000000000000000000, 0.0000000000000000000 ) ) ;
#28 = DIRECTION ( 'NONE',  ( -0.0000000000000000000, -0.0000000000000000000, -1.000000000000000000 ) ) ;
#29 = ADVANCED_FACE ( 'NONE', ( #158 ), #207, .T. ) ;
#30 = LINE ( 'NONE', #212, #153 ) ;
#31 = AXIS2_PLACEMENT_3D ( 'NONE', #45, #274, #89 ) ;
#32 = MANIFOLD_SOLID_BREP ( '1', #196 ) ;
#33 = ADVANCED_FACE ( 'NONE', ( #177 ), #299, .F. ) ;
#34 = DIRECTION ( 'NONE',  ( -1.000000000000000000, 0.0000000000000000000, -0.0000000000000000000 ) ) ;
#35 = CARTESIAN_POINT ( 'NONE',  ( 0.0000000000000000000, 0.0000000000000000000, 0.2480314960629921300 ) ) ;
#36 = CARTESIAN_POINT ( 'NONE',  ( 0.0000000000000000000, 0.0000000000000000000, 0.0000000000000000000 ) ) ;
#37 = ORIENTED_EDGE ( 'NONE', *, *, #94, .T. ) ;
#38 = CARTESIAN_POINT ( 'NONE',  ( 0.0000000000000000000, 0.0000000000000000000, 0.0000000000000000000 ) ) ;
#39 = FACE_OUTER_BOUND ( 'NONE', #20, .T. ) ;
#40 =( GEOMETRIC_REPRESENTATION_CONTEXT ( 3 ) GLOBAL_UNCERTAINTY_ASSIGNED_CONTEXT ( ( #280 ) ) GLOBAL_UNIT_ASSIGNED_CONTEXT ( ( #307, #65, #243 ) ) REPRESENTATION_CONTEXT ( 'NONE', 'WORKASPACE' ) );
#41 = DIRECTION ( 'NONE',  ( -1.000000000000000000, 0.0000000000000000000, 0.0000000000000000000 ) ) ;
#42 = ORIENTED_EDGE ( 'NONE', *, *, #276, .T. ) ;
#43 = VECTOR ( 'NONE', #263, 39.37007874015748100 ) ;
#44 = CARTESIAN_POINT ( 'NONE',  ( -0.7874015748031496500, 0.0000000000000000000, 0.2480314960629921300 ) ) ;
#45 = CARTESIAN_POINT ( 'NONE',  ( 0.0000000000000000000, 0.0000000000000000000, 0.1771653543307086800 ) ) ;
#46 = AXIS2_PLACEMENT_3D ( 'NONE', #308, #1, #192 ) ;
#47 = VERTEX_POINT ( 'NONE', #44 ) ;
#48 = VERTEX_POINT ( 'NONE', #199 ) ;
#49 = VECTOR ( 'NONE', #102, 39.37007874015748100 ) ;
#50 = FILL_AREA_STYLE ('',( #24 ) ) ;
#51 = AXIS2_PLACEMENT_3D ( 'NONE', #53, #28, #255 ) ;
#52 = EDGE_LOOP ( 'NONE', ( #111, #76, #42, #234 ) ) ;
#53 = CARTESIAN_POINT ( 'NONE',  ( 0.0000000000000000000, 0.0000000000000000000, 0.1771653543307086800 ) ) ;
#54 = ORIENTED_EDGE ( 'NONE', *, *, #80, .T. ) ;
#55 = CARTESIAN_POINT ( 'NONE',  ( 0.9055118110236221000, 0.0000000000000000000, 0.05905511811023620600 ) ) ;
#56 = DIRECTION ( 'NONE',  ( 0.0000000000000000000, 0.0000000000000000000, -1.000000000000000000 ) ) ;
#57 = ADVANCED_FACE ( 'NONE', ( #39 ), #174, .T. ) ;
#58 = PLANE ( 'NONE',  #187 ) ;
#59 = PRESENTATION_STYLE_ASSIGNMENT (( #295 ) ) ;
#60 = AXIS2_PLACEMENT_3D ( 'NONE', #145, #173, #34 ) ;
#61 = DIRECTION ( 'NONE',  ( 0.0000000000000000000, 0.0000000000000000000, 1.000000000000000000 ) ) ;
#62 = ORIENTED_EDGE ( 'NONE', *, *, #6, .F. ) ;
#63 = DIRECTION ( 'NONE',  ( -1.000000000000000000, 0.0000000000000000000, -0.0000000000000000000 ) ) ;
#64 = CYLINDRICAL_SURFACE ( 'NONE', #270, 0.7874015748031496500 ) ;
#65 =( NAMED_UNIT ( * ) PLANE_ANGLE_UNIT ( ) SI_UNIT ( $, .RADIAN. ) );
#66 = SURFACE_STYLE_USAGE ( .BOTH. , #242 ) ;
#67 = EDGE_CURVE ( 'NONE', #129, #132, #304, .T. ) ;
#68 = ORIENTED_EDGE ( 'NONE', *, *, #140, .F. ) ;
#69 = CARTESIAN_POINT ( 'NONE',  ( 0.0000000000000000000, 0.0000000000000000000, 0.2559055118110236700 ) ) ;
#70 = UNCERTAINTY_MEASURE_WITH_UNIT (LENGTH_MEASURE( 1.000000000000000100E-005 ), #218, 'distance_accuracy_value', 'NONE');
#71 = EDGE_CURVE ( 'NONE', #227, #7, #229, .T. ) ;
#72 = EDGE_LOOP ( 'NONE', ( #271, #264 ) ) ;
#73 = ORIENTED_EDGE ( 'NONE', *, *, #256, .F. ) ;
#74 = PRESENTATION_STYLE_ASSIGNMENT (( #66 ) ) ;
#75 = MECHANICAL_DESIGN_GEOMETRIC_PRESENTATION_REPRESENTATION (  '', ( #116 ), #40 ) ;
#76 = ORIENTED_EDGE ( 'NONE', *, *, #140, .T. ) ;
#77 = LINE ( 'NONE', #98, #43 ) ;
#78 = DIRECTION ( 'NONE',  ( -1.000000000000000000, 0.0000000000000000000, 0.0000000000000000000 ) ) ;
#79 = CARTESIAN_POINT ( 'NONE',  ( 0.0000000000000000000, 0.0000000000000000000, 0.2480314960629921300 ) ) ;
#80 = EDGE_CURVE ( 'NONE', #167, #87, #100, .T. ) ;
#81 = LINE ( 'NONE', #190, #49 ) ;
#82 = CARTESIAN_POINT ( 'NONE',  ( 0.0000000000000000000, 0.0000000000000000000, 0.2559055118110236700 ) ) ;
#83 = DIRECTION ( 'NONE',  ( 1.000000000000000000, 0.0000000000000000000, 0.0000000000000000000 ) ) ;
#84 = DIRECTION ( 'NONE',  ( -1.000000000000000000, 0.0000000000000000000, 0.0000000000000000000 ) ) ;
#85 = PRESENTATION_LAYER_ASSIGNMENT (  '', '', ( #116 ) ) ;
#86 = VECTOR ( 'NONE', #181, 39.37007874015748100 ) ;
#87 = VERTEX_POINT ( 'NONE', #88 ) ;
#88 = CARTESIAN_POINT ( 'NONE',  ( 0.8267716535433071700, 1.012503259137575500E-016, 0.05905511811023622700 ) ) ;
#89 = DIRECTION ( 'NONE',  ( -1.000000000000000000, 0.0000000000000000000, 0.0000000000000000000 ) ) ;
#90 = AXIS2_PLACEMENT_3D ( 'NONE', #216, #265, #41 ) ;
#91 = ORIENTED_EDGE ( 'NONE', *, *, #6, .T. ) ;
#92 = FACE_OUTER_BOUND ( 'NONE', #245, .T. ) ;
#93 = AXIS2_PLACEMENT_3D ( 'NONE', #38, #61, #151 ) ;
#94 = EDGE_CURVE ( 'NONE', #132, #126, #135, .T. ) ;
#95 = ORIENTED_EDGE ( 'NONE', *, *, #254, .T. ) ;
#96 = VERTEX_POINT ( 'NONE', #203 ) ;
#97 = DIRECTION ( 'NONE',  ( -1.000000000000000000, 0.0000000000000000000, 0.0000000000000000000 ) ) ;
#98 = CARTESIAN_POINT ( 'NONE',  ( -0.9055118110236221000, 1.108932140960201700E-016, 0.2913385826771653900 ) ) ;
#99 = ORIENTED_EDGE ( 'NONE', *, *, #306, .F. ) ;
#100 = CIRCLE ( 'NONE', #217, 0.8267716535433071700 ) ;
#101 = DIRECTION ( 'NONE',  ( -0.0000000000000000000, -0.0000000000000000000, -1.000000000000000000 ) ) ;
#102 = DIRECTION ( 'NONE',  ( -0.0000000000000000000, -0.0000000000000000000, -1.000000000000000000 ) ) ;
#103 = DIRECTION ( 'NONE',  ( -0.0000000000000000000, -0.0000000000000000000, -1.000000000000000000 ) ) ;
#104 = ORIENTED_EDGE ( 'NONE', *, *, #136, .T. ) ;
#105 = PRODUCT_CONTEXT ( 'NONE', #244, 'mechanical' ) ;
#106 = APPLICATION_PROTOCOL_DEFINITION ( 'draft international standard', 'automotive_design', 1998, #244 ) ;
#107 = ORIENTED_EDGE ( 'NONE', *, *, #67, .T. ) ;
#108 = EDGE_LOOP ( 'NONE', ( #62, #25, #238, #215 ) ) ;
#109 =( LENGTH_UNIT ( ) NAMED_UNIT ( * ) SI_UNIT ( $, .METRE. ) );
#110 = AXIS2_PLACEMENT_3D ( 'NONE', #224, #223, #13 ) ;
#111 = ORIENTED_EDGE ( 'NONE', *, *, #94, .F. ) ;
#112 = DIRECTION ( 'NONE',  ( 0.0000000000000000000, 0.0000000000000000000, 1.000000000000000000 ) ) ;
#113 = AXIS2_PLACEMENT_3D ( 'NONE', #138, #230, #125 ) ;
#114 = CIRCLE ( 'NONE', #16, 0.9055118110236221000 ) ;
#115 = SURFACE_STYLE_FILL_AREA ( #50 ) ;
#116 = STYLED_ITEM ( 'NONE', ( #59 ), #32 ) ;
#117 = CARTESIAN_POINT ( 'NONE',  ( 0.0000000000000000000, 0.0000000000000000000, 0.2559055118110236700 ) ) ;
#118 = CARTESIAN_POINT ( 'NONE',  ( -0.8267716535433071700, 0.0000000000000000000, 0.1771653543307086800 ) ) ;
#119 = AXIS2_PLACEMENT_3D ( 'NONE', #117, #166, #97 ) ;
#120 = FACE_OUTER_BOUND ( 'NONE', #52, .T. ) ;
#121 = SURFACE_SIDE_STYLE ('',( #115 ) ) ;
#122 = DIRECTION ( 'NONE',  ( -1.000000000000000000, 0.0000000000000000000, 0.0000000000000000000 ) ) ;
#123 = DIRECTION ( 'NONE',  ( -0.0000000000000000000, -0.0000000000000000000, -1.000000000000000000 ) ) ;
#124 = AXIS2_PLACEMENT_3D ( 'NONE', #69, #178, #221 ) ;
#125 = DIRECTION ( 'NONE',  ( 1.000000000000000000, 0.0000000000000000000, 0.0000000000000000000 ) ) ;
#126 = VERTEX_POINT ( 'NONE', #272 ) ;
#127 =( NAMED_UNIT ( * ) PLANE_ANGLE_UNIT ( ) SI_UNIT ( $, .RADIAN. ) );
#128 = CARTESIAN_POINT ( 'NONE',  ( 0.7874015748031496500, 9.642888182262624300E-017, 0.2559055118110236700 ) ) ;
#129 = VERTEX_POINT ( 'NONE', #130 ) ;
#130 = CARTESIAN_POINT ( 'NONE',  ( -0.7874015748031496500, 0.0000000000000000000, 0.2559055118110236700 ) ) ;
#131 = CARTESIAN_POINT ( 'NONE',  ( 0.9055118110236221000, 0.0000000000000000000, 0.2913385826771653900 ) ) ;
#132 = VERTEX_POINT ( 'NONE', #128 ) ;
#133 = PRODUCT_RELATED_PRODUCT_CATEGORY ( 'part', '', ( #3 ) ) ;
#134 = EDGE_LOOP ( 'NONE', ( #107, #37, #170, #277 ) ) ;
#135 = LINE ( 'NONE', #273, #228 ) ;
#136 = EDGE_CURVE ( 'NONE', #47, #126, #278, .T. ) ;
#137 = VERTEX_POINT ( 'NONE', #157 ) ;
#138 = CARTESIAN_POINT ( 'NONE',  ( 0.0000000000000000000, 0.0000000000000000000, 0.0000000000000000000 ) ) ;
#139 = CYLINDRICAL_SURFACE ( 'NONE', #189, 0.9055118110236221000 ) ;
#140 = EDGE_CURVE ( 'NONE', #132, #129, #208, .T. ) ;
#141 = DIRECTION ( 'NONE',  ( -0.0000000000000000000, -0.0000000000000000000, -1.000000000000000000 ) ) ;
#142 = PRODUCT_DEFINITION_CONTEXT ( 'detailed design', #220, 'design' ) ;
#143 = CARTESIAN_POINT ( 'NONE',  ( 0.0000000000000000000, 0.0000000000000000000, 0.2480314960629921300 ) ) ;
#144 = DIMENSIONAL_EXPONENTS ( 1.000000000000000000, 0.0000000000000000000, 0.0000000000000000000, 0.0000000000000000000, 0.0000000000000000000, 0.0000000000000000000, 0.0000000000000000000 ) ;
#145 = CARTESIAN_POINT ( 'NONE',  ( 0.0000000000000000000, 0.0000000000000000000, 0.0000000000000000000 ) ) ;
#146 = CIRCLE ( 'NONE', #205, 0.7874015748031496500 ) ;
#147 = ADVANCED_FACE ( 'NONE', ( #266 ), #139, .T. ) ;
#148 = DIRECTION ( 'NONE',  ( 0.0000000000000000000, 0.0000000000000000000, 1.000000000000000000 ) ) ;
#149 = DIRECTION ( 'NONE',  ( 1.000000000000000000, 0.0000000000000000000, 0.0000000000000000000 ) ) ;
#150 = STYLED_ITEM ( 'NONE', ( #74 ), #186 ) ;
#151 = DIRECTION ( 'NONE',  ( 1.000000000000000000, 0.0000000000000000000, 0.0000000000000000000 ) ) ;
#152 = ORIENTED_EDGE ( 'NONE', *, *, #67, .F. ) ;
#153 = VECTOR ( 'NONE', #261, 39.37007874015748100 ) ;
#154 = CARTESIAN_POINT ( 'NONE',  ( -0.9055118110236221000, 1.108932140960201700E-016, 0.05905511811023620600 ) ) ;
#155 = PRODUCT_DEFINITION ( 'UNKNOWN', '', #290, #142 ) ;
#156 = FACE_BOUND ( 'NONE', #159, .T. ) ;
#157 = CARTESIAN_POINT ( 'NONE',  ( -0.9055118110236221000, 1.108932140960201700E-016, 0.0000000000000000000 ) ) ;
#158 = FACE_OUTER_BOUND ( 'NONE', #163, .T. ) ;
#159 = EDGE_LOOP ( 'NONE', ( #152, #68 ) ) ;
#160 = AXIS2_PLACEMENT_3D ( 'NONE', #10, #112, #233 ) ;
#161 = VECTOR ( 'NONE', #101, 39.37007874015748100 ) ;
#162 = CARTESIAN_POINT ( 'NONE',  ( 0.0000000000000000000, 0.0000000000000000000, 0.05905511811023620600 ) ) ;
#163 = EDGE_LOOP ( 'NONE', ( #225, #286, #219, #296 ) ) ;
#164 = EDGE_CURVE ( 'NONE', #96, #87, #81, .T. ) ;
#165 = ORIENTED_EDGE ( 'NONE', *, *, #250, .T. ) ;
#166 = DIRECTION ( 'NONE',  ( 0.0000000000000000000, 0.0000000000000000000, 1.000000000000000000 ) ) ;
#167 = VERTEX_POINT ( 'NONE', #2 ) ;
#168 = ADVANCED_FACE ( 'NONE', ( #14, #185 ), #239, .F. ) ;
#169 = CARTESIAN_POINT ( 'NONE',  ( 0.0000000000000000000, 0.0000000000000000000, 0.2559055118110236700 ) ) ;
#170 = ORIENTED_EDGE ( 'NONE', *, *, #136, .F. ) ;
#171 = CIRCLE ( 'NONE', #22, 0.8267716535433071700 ) ;
#172 = DIRECTION ( 'NONE',  ( -1.000000000000000000, 0.0000000000000000000, 0.0000000000000000000 ) ) ;
#173 = DIRECTION ( 'NONE',  ( 0.0000000000000000000, 0.0000000000000000000, -1.000000000000000000 ) ) ;
#174 = CYLINDRICAL_SURFACE ( 'NONE', #31, 0.8267716535433071700 ) ;
#175 = FILL_AREA_STYLE_COLOUR ( '', #21 ) ;
#176 =( LENGTH_UNIT ( ) NAMED_UNIT ( * ) SI_UNIT ( $, .METRE. ) );
#177 = FACE_OUTER_BOUND ( 'NONE', #214, .T. ) ;
#178 = DIRECTION ( 'NONE',  ( 0.0000000000000000000, 0.0000000000000000000, 1.000000000000000000 ) ) ;
#179 = DIRECTION ( 'NONE',  ( 0.0000000000000000000, 0.0000000000000000000, 1.000000000000000000 ) ) ;
#180 = ORIENTED_EDGE ( 'NONE', *, *, #254, .F. ) ;
#181 = DIRECTION ( 'NONE',  ( 0.0000000000000000000, 0.0000000000000000000, 1.000000000000000000 ) ) ;
#182 =( GEOMETRIC_REPRESENTATION_CONTEXT ( 3 ) GLOBAL_UNCERTAINTY_ASSIGNED_CONTEXT ( ( #70 ) ) GLOBAL_UNIT_ASSIGNED_CONTEXT ( ( #218, #127, #247 ) ) REPRESENTATION_CONTEXT ( 'NONE', 'WORKASPACE' ) );
#183 = EDGE_LOOP ( 'NONE', ( #252, #91 ) ) ;
#184 = EDGE_LOOP ( 'NONE', ( #180, #232 ) ) ;
#185 = FACE_BOUND ( 'NONE', #72, .T. ) ;
#186 = ADVANCED_BREP_SHAPE_REPRESENTATION ( 'RL-104', ( #32, #93 ), #287 ) ;
#187 = AXIS2_PLACEMENT_3D ( 'NONE', #82, #248, #63 ) ;
#188 = CIRCLE ( 'NONE', #268, 0.8267716535433071700 ) ;
#189 = AXIS2_PLACEMENT_3D ( 'NONE', #300, #15, #289 ) ;
#190 = CARTESIAN_POINT ( 'NONE',  ( 0.8267716535433071700, 1.012503259137575500E-016, 0.1771653543307086800 ) ) ;
#191 = ADVANCED_FACE ( 'NONE', ( #305 ), #279, .T. ) ;
#192 = DIRECTION ( 'NONE',  ( 1.000000000000000000, 0.0000000000000000000, 0.0000000000000000000 ) ) ;
#193 = CYLINDRICAL_SURFACE ( 'NONE', #301, 0.7874015748031496500 ) ;
#194 = ADVANCED_FACE ( 'NONE', ( #120 ), #193, .F. ) ;
#195 = ADVANCED_FACE ( 'NONE', ( #19 ), #64, .F. ) ;
#196 = CLOSED_SHELL ( 'NONE', ( #191, #29, #195, #258, #147, #168, #57, #283, #194, #33 ) ) ;
#197 = DIRECTION ( 'NONE',  ( 1.000000000000000000, 0.0000000000000000000, 0.0000000000000000000 ) ) ;
#198 = LENGTH_MEASURE_WITH_UNIT ( LENGTH_MEASURE( 0.02539999999999999900 ), #176 );
#199 = CARTESIAN_POINT ( 'NONE',  ( -0.8267716535433071700, 0.0000000000000000000, 0.2559055118110236700 ) ) ;
#200 = ORIENTED_EDGE ( 'NONE', *, *, #226, .T. ) ;
#201 = SURFACE_STYLE_FILL_AREA ( #293 ) ;
#202 = PRESENTATION_LAYER_ASSIGNMENT (  '', '', ( #150 ) ) ;
#203 = CARTESIAN_POINT ( 'NONE',  ( 0.8267716535433071700, 1.012503259137575500E-016, 0.2559055118110236700 ) ) ;
#204 = ORIENTED_EDGE ( 'NONE', *, *, #281, .T. ) ;
#205 = AXIS2_PLACEMENT_3D ( 'NONE', #79, #148, #122 ) ;
#206 = PRODUCT_DEFINITION_SHAPE ( 'NONE', 'NONE',  #155 ) ;
#207 = CYLINDRICAL_SURFACE ( 'NONE', #51, 0.8267716535433071700 ) ;
#208 = CIRCLE ( 'NONE', #119, 0.7874015748031496500 ) ;
#209 = DIMENSIONAL_EXPONENTS ( 1.000000000000000000, 0.0000000000000000000, 0.0000000000000000000, 0.0000000000000000000, 0.0000000000000000000, 0.0000000000000000000, 0.0000000000000000000 ) ;
#210 = FACE_OUTER_BOUND ( 'NONE', #183, .T. ) ;
#211 = DIRECTION ( 'NONE',  ( -0.0000000000000000000, -0.0000000000000000000, -1.000000000000000000 ) ) ;
#212 = CARTESIAN_POINT ( 'NONE',  ( -0.7874015748031496500, 0.0000000000000000000, 0.2480314960629921300 ) ) ;
#213 =( NAMED_UNIT ( * ) PLANE_ANGLE_UNIT ( ) SI_UNIT ( $, .RADIAN. ) );
#214 = EDGE_LOOP ( 'NONE', ( #104, #165 ) ) ;
#215 = ORIENTED_EDGE ( 'NONE', *, *, #71, .F. ) ;
#216 = CARTESIAN_POINT ( 'NONE',  ( 0.0000000000000000000, 0.0000000000000000000, 0.05905511811023622700 ) ) ;
#217 = AXIS2_PLACEMENT_3D ( 'NONE', #249, #179, #251 ) ;
#218 =( CONVERSION_BASED_UNIT ( 'INCH', #246 ) LENGTH_UNIT ( ) NAMED_UNIT ( #209 ) );
#219 = ORIENTED_EDGE ( 'NONE', *, *, #294, .T. ) ;
#220 = APPLICATION_CONTEXT ( 'automotive_design' ) ;
#221 = DIRECTION ( 'NONE',  ( -1.000000000000000000, 0.0000000000000000000, 0.0000000000000000000 ) ) ;
#222 = UNCERTAINTY_MEASURE_WITH_UNIT (LENGTH_MEASURE( 1.000000000000000100E-005 ), #291, 'distance_accuracy_value', 'NONE');
#223 = DIRECTION ( 'NONE',  ( 0.0000000000000000000, 0.0000000000000000000, -1.000000000000000000 ) ) ;
#224 = CARTESIAN_POINT ( 'NONE',  ( 0.0000000000000000000, 0.0000000000000000000, 0.2480314960629921300 ) ) ;
#225 = ORIENTED_EDGE ( 'NONE', *, *, #241, .T. ) ;
#226 = EDGE_CURVE ( 'NONE', #48, #167, #297, .T. ) ;
#227 = VERTEX_POINT ( 'NONE', #27 ) ;
#228 = VECTOR ( 'NONE', #298, 39.37007874015748100 ) ;
#229 = LINE ( 'NONE', #131, #86 ) ;
#230 = DIRECTION ( 'NONE',  ( -0.0000000000000000000, -0.0000000000000000000, -1.000000000000000000 ) ) ;
#231 = AXIS2_PLACEMENT_3D ( 'NONE', #236, #56, #309 ) ;
#232 = ORIENTED_EDGE ( 'NONE', *, *, #11, .F. ) ;
#233 = DIRECTION ( 'NONE',  ( -1.000000000000000000, 0.0000000000000000000, 0.0000000000000000000 ) ) ;
#234 = ORIENTED_EDGE ( 'NONE', *, *, #250, .F. ) ;
#235 = DIRECTION ( 'NONE',  ( 0.0000000000000000000, 0.0000000000000000000, 1.000000000000000000 ) ) ;
#236 = CARTESIAN_POINT ( 'NONE',  ( 0.0000000000000000000, 0.0000000000000000000, 0.05905511811023622700 ) ) ;
#237 = DIMENSIONAL_EXPONENTS ( 1.000000000000000000, 0.0000000000000000000, 0.0000000000000000000, 0.0000000000000000000, 0.0000000000000000000, 0.0000000000000000000, 0.0000000000000000000 ) ;
#238 = ORIENTED_EDGE ( 'NONE', *, *, #11, .T. ) ;
#239 = PLANE ( 'NONE',  #231 ) ;
#240 = DIRECTION ( 'NONE',  ( -0.0000000000000000000, -0.0000000000000000000, -1.000000000000000000 ) ) ;
#241 = EDGE_CURVE ( 'NONE', #48, #96, #171, .T. ) ;
#242 = SURFACE_SIDE_STYLE ('',( #201 ) ) ;
#243 =( NAMED_UNIT ( * ) SI_UNIT ( $, .STERADIAN. ) SOLID_ANGLE_UNIT ( ) );
#244 = APPLICATION_CONTEXT ( 'automotive_design' ) ;
#245 = EDGE_LOOP ( 'NONE', ( #285, #259 ) ) ;
#246 = LENGTH_MEASURE_WITH_UNIT ( LENGTH_MEASURE( 0.02539999999999999900 ), #109 );
#247 =( NAMED_UNIT ( * ) SI_UNIT ( $, .STERADIAN. ) SOLID_ANGLE_UNIT ( ) );
#248 = DIRECTION ( 'NONE',  ( 0.0000000000000000000, 0.0000000000000000000, -1.000000000000000000 ) ) ;
#249 = CARTESIAN_POINT ( 'NONE',  ( 0.0000000000000000000, 0.0000000000000000000, 0.05905511811023622700 ) ) ;
#250 = EDGE_CURVE ( 'NONE', #126, #47, #146, .T. ) ;
#251 = DIRECTION ( 'NONE',  ( -1.000000000000000000, 0.0000000000000000000, 0.0000000000000000000 ) ) ;
#252 = ORIENTED_EDGE ( 'NONE', *, *, #306, .T. ) ;
#253 = AXIS2_PLACEMENT_3D ( 'NONE', #284, #235, #149 ) ;
#254 = EDGE_CURVE ( 'NONE', #7, #302, #303, .T. ) ;
#255 = DIRECTION ( 'NONE',  ( -1.000000000000000000, 0.0000000000000000000, 0.0000000000000000000 ) ) ;
#256 = EDGE_CURVE ( 'NONE', #137, #302, #77, .T. ) ;
#257 = LENGTH_MEASURE_WITH_UNIT ( LENGTH_MEASURE( 0.02539999999999999900 ), #4 );
#258 = ADVANCED_FACE ( 'NONE', ( #210 ), #288, .T. ) ;
#259 = ORIENTED_EDGE ( 'NONE', *, *, #281, .F. ) ;
#260 = CIRCLE ( 'NONE', #8, 0.9055118110236221000 ) ;
#261 = DIRECTION ( 'NONE',  ( -0.0000000000000000000, -0.0000000000000000000, -1.000000000000000000 ) ) ;
#262 = MECHANICAL_DESIGN_GEOMETRIC_PRESENTATION_REPRESENTATION (  '', ( #150 ), #182 ) ;
#263 = DIRECTION ( 'NONE',  ( 0.0000000000000000000, 0.0000000000000000000, 1.000000000000000000 ) ) ;
#264 = ORIENTED_EDGE ( 'NONE', *, *, #294, .F. ) ;
#265 = DIRECTION ( 'NONE',  ( 0.0000000000000000000, 0.0000000000000000000, 1.000000000000000000 ) ) ;
#266 = FACE_OUTER_BOUND ( 'NONE', #12, .T. ) ;
#267 = CARTESIAN_POINT ( 'NONE',  ( 0.0000000000000000000, 0.0000000000000000000, 0.2559055118110236700 ) ) ;
#268 = AXIS2_PLACEMENT_3D ( 'NONE', #267, #123, #84 ) ;
#269 = APPLICATION_PROTOCOL_DEFINITION ( 'draft international standard', 'automotive_design', 1998, #220 ) ;
#270 = AXIS2_PLACEMENT_3D ( 'NONE', #143, #211, #5 ) ;
#271 = ORIENTED_EDGE ( 'NONE', *, *, #80, .F. ) ;
#272 = CARTESIAN_POINT ( 'NONE',  ( 0.7874015748031496500, 9.642888182262624300E-017, 0.2480314960629921300 ) ) ;
#273 = CARTESIAN_POINT ( 'NONE',  ( 0.7874015748031496500, 9.642888182262624300E-017, 0.2480314960629921300 ) ) ;
#274 = DIRECTION ( 'NONE',  ( -0.0000000000000000000, -0.0000000000000000000, -1.000000000000000000 ) ) ;
#275 = COLOUR_RGB ( '',0.8000000000000000400, 0.8000000000000000400, 0.8000000000000000400 ) ;
#276 = EDGE_CURVE ( 'NONE', #129, #47, #30, .T. ) ;
#277 = ORIENTED_EDGE ( 'NONE', *, *, #276, .F. ) ;
#278 = CIRCLE ( 'NONE', #160, 0.7874015748031496500 ) ;
#279 = CYLINDRICAL_SURFACE ( 'NONE', #253, 0.9055118110236221000 ) ;
#280 = UNCERTAINTY_MEASURE_WITH_UNIT (LENGTH_MEASURE( 1.000000000000000100E-005 ), #307, 'distance_accuracy_value', 'NONE');
#281 = EDGE_CURVE ( 'NONE', #96, #48, #188, .T. ) ;
#282 = ORIENTED_EDGE ( 'NONE', *, *, #71, .T. ) ;
#283 = ADVANCED_FACE ( 'NONE', ( #92, #156 ), #58, .F. ) ;
#284 = CARTESIAN_POINT ( 'NONE',  ( 0.0000000000000000000, 0.0000000000000000000, 0.2913385826771653900 ) ) ;
#285 = ORIENTED_EDGE ( 'NONE', *, *, #241, .F. ) ;
#286 = ORIENTED_EDGE ( 'NONE', *, *, #164, .T. ) ;
#287 =( GEOMETRIC_REPRESENTATION_CONTEXT ( 3 ) GLOBAL_UNCERTAINTY_ASSIGNED_CONTEXT ( ( #222 ) ) GLOBAL_UNIT_ASSIGNED_CONTEXT ( ( #291, #213, #9 ) ) REPRESENTATION_CONTEXT ( 'NONE', 'WORKASPACE' ) );
#288 = PLANE ( 'NONE',  #60 ) ;
#289 = DIRECTION ( 'NONE',  ( 1.000000000000000000, 0.0000000000000000000, 0.0000000000000000000 ) ) ;
#290 = PRODUCT_DEFINITION_FORMATION_WITH_SPECIFIED_SOURCE ( 'ANY', '', #3, .NOT_KNOWN. ) ;
#291 =( CONVERSION_BASED_UNIT ( 'INCH', #198 ) LENGTH_UNIT ( ) NAMED_UNIT ( #237 ) );
#292 = ORIENTED_EDGE ( 'NONE', *, *, #164, .F. ) ;
#293 = FILL_AREA_STYLE ('',( #175 ) ) ;
#294 = EDGE_CURVE ( 'NONE', #87, #167, #26, .T. ) ;
#295 = SURFACE_STYLE_USAGE ( .BOTH. , #121 ) ;
#296 = ORIENTED_EDGE ( 'NONE', *, *, #226, .F. ) ;
#297 = LINE ( 'NONE', #118, #161 ) ;
#298 = DIRECTION ( 'NONE',  ( -0.0000000000000000000, -0.0000000000000000000, -1.000000000000000000 ) ) ;
#299 = PLANE ( 'NONE',  #110 ) ;
#300 = CARTESIAN_POINT ( 'NONE',  ( 0.0000000000000000000, 0.0000000000000000000, 0.2913385826771653900 ) ) ;
#301 = AXIS2_PLACEMENT_3D ( 'NONE', #35, #103, #172 ) ;
#302 = VERTEX_POINT ( 'NONE', #154 ) ;
#303 = CIRCLE ( 'NONE', #46, 0.9055118110236221000 ) ;
#304 = CIRCLE ( 'NONE', #124, 0.7874015748031496500 ) ;
#305 = FACE_OUTER_BOUND ( 'NONE', #108, .T. ) ;
#306 = EDGE_CURVE ( 'NONE', #227, #137, #260, .T. ) ;
#307 =( CONVERSION_BASED_UNIT ( 'INCH', #257 ) LENGTH_UNIT ( ) NAMED_UNIT ( #144 ) );
#308 = CARTESIAN_POINT ( 'NONE',  ( 0.0000000000000000000, 0.0000000000000000000, 0.05905511811023620600 ) ) ;
#309 = DIRECTION ( 'NONE',  ( -1.000000000000000000, 0.0000000000000000000, -0.0000000000000000000 ) ) ;
ENDSEC;
END-ISO-10303-21;
