ISO-10303-21;
HEADER;
FILE_DESCRIPTION (( 'STEP AP214' ),
    '1' );
FILE_NAME ('RL-109.step',
    '2018-04-12T20:58:55',
    ( '' ),
    ( '' ),
    'SwSTEP 2.0',
    'SolidWorks 2017',
    '' );
FILE_SCHEMA (( 'AUTOMOTIVE_DESIGN' ));
ENDSEC;

DATA;
#1 = UNCERTAINTY_MEASURE_WITH_UNIT (LENGTH_MEASURE( 1.000000000000000100E-005 ), #84, 'distance_accuracy_value', 'NONE');
#2 = ORIENTED_EDGE ( 'NONE', *, *, #137, .F. ) ;
#3 =( GEOMETRIC_REPRESENTATION_CONTEXT ( 3 ) GLOBAL_UNCERTAINTY_ASSIGNED_CONTEXT ( ( #13 ) ) GLOBAL_UNIT_ASSIGNED_CONTEXT ( ( #31, #134, #145 ) ) REPRESENTATION_CONTEXT ( 'NONE', 'WORKASPACE' ) );
#4 = FACE_OUTER_BOUND ( 'NONE', #89, .T. ) ;
#5 = ORIENTED_EDGE ( 'NONE', *, *, #105, .T. ) ;
#6 =( LENGTH_UNIT ( ) NAMED_UNIT ( * ) SI_UNIT ( $, .METRE. ) );
#7 = VECTOR ( 'NONE', #42, 39.37007874015748100 ) ;
#8 = SURFACE_SIDE_STYLE ('',( #87 ) ) ;
#9 = MECHANICAL_DESIGN_GEOMETRIC_PRESENTATION_REPRESENTATION (  '', ( #38 ), #101 ) ;
#10 = DIRECTION ( 'NONE',  ( 1.000000000000000000, 0.0000000000000000000, 0.0000000000000000000 ) ) ;
#11 = APPLICATION_PROTOCOL_DEFINITION ( 'draft international standard', 'automotive_design', 1998, #136 ) ;
#12 = EDGE_LOOP ( 'NONE', ( #104, #36 ) ) ;
#13 = UNCERTAINTY_MEASURE_WITH_UNIT (LENGTH_MEASURE( 1.000000000000000100E-005 ), #31, 'distance_accuracy_value', 'NONE');
#14 = ORIENTED_EDGE ( 'NONE', *, *, #62, .T. ) ;
#15 = DIRECTION ( 'NONE',  ( -0.0000000000000000000, -0.0000000000000000000, -1.000000000000000000 ) ) ;
#16 = PRODUCT_DEFINITION_SHAPE ( 'NONE', 'NONE',  #70 ) ;
#17 = ORIENTED_EDGE ( 'NONE', *, *, #62, .F. ) ;
#18 = MECHANICAL_DESIGN_GEOMETRIC_PRESENTATION_REPRESENTATION (  '', ( #29 ), #142 ) ;
#19 = COLOUR_RGB ( '',0.8000000000000000400, 0.8000000000000000400, 0.8000000000000000400 ) ;
#20 = DIRECTION ( 'NONE',  ( 1.000000000000000000, 0.0000000000000000000, 0.0000000000000000000 ) ) ;
#21 = DIRECTION ( 'NONE',  ( 0.0000000000000000000, 0.0000000000000000000, 1.000000000000000000 ) ) ;
#22 = CARTESIAN_POINT ( 'NONE',  ( 0.0000000000000000000, 0.0000000000000000000, 0.0000000000000000000 ) ) ;
#23 = LENGTH_MEASURE_WITH_UNIT ( LENGTH_MEASURE( 0.02539999999999999900 ), #35 );
#24 = APPLICATION_PROTOCOL_DEFINITION ( 'draft international standard', 'automotive_design', 1998, #71 ) ;
#25 = PRESENTATION_STYLE_ASSIGNMENT (( #77 ) ) ;
#26 = DIRECTION ( 'NONE',  ( 1.000000000000000000, 0.0000000000000000000, 0.0000000000000000000 ) ) ;
#27 = DIMENSIONAL_EXPONENTS ( 1.000000000000000000, 0.0000000000000000000, 0.0000000000000000000, 0.0000000000000000000, 0.0000000000000000000, 0.0000000000000000000, 0.0000000000000000000 ) ;
#28 = SHAPE_DEFINITION_REPRESENTATION ( #16, #83 ) ;
#29 = STYLED_ITEM ( 'NONE', ( #99 ), #131 ) ;
#30 = CARTESIAN_POINT ( 'NONE',  ( -1.633858267716535600, 2.000899297819494500E-016, 0.2874015748031496000 ) ) ;
#31 =( CONVERSION_BASED_UNIT ( 'INCH', #23 ) LENGTH_UNIT ( ) NAMED_UNIT ( #127 ) );
#32 =( CONVERSION_BASED_UNIT ( 'INCH', #141 ) LENGTH_UNIT ( ) NAMED_UNIT ( #27 ) );
#33 = DIRECTION ( 'NONE',  ( -1.000000000000000000, 0.0000000000000000000, -0.0000000000000000000 ) ) ;
#34 = DIRECTION ( 'NONE',  ( -0.0000000000000000000, -0.0000000000000000000, -1.000000000000000000 ) ) ;
#35 =( LENGTH_UNIT ( ) NAMED_UNIT ( * ) SI_UNIT ( $, .METRE. ) );
#36 = ORIENTED_EDGE ( 'NONE', *, *, #57, .F. ) ;
#37 = CIRCLE ( 'NONE', #149, 1.633858267716535600 ) ;
#38 = STYLED_ITEM ( 'NONE', ( #25 ), #83 ) ;
#39 = ORIENTED_EDGE ( 'NONE', *, *, #57, .T. ) ;
#40 = CARTESIAN_POINT ( 'NONE',  ( 1.633858267716535600, 0.0000000000000000000, 0.2874015748031496000 ) ) ;
#41 = ORIENTED_EDGE ( 'NONE', *, *, #137, .T. ) ;
#42 = DIRECTION ( 'NONE',  ( 0.0000000000000000000, 0.0000000000000000000, 1.000000000000000000 ) ) ;
#43 = LENGTH_MEASURE_WITH_UNIT ( LENGTH_MEASURE( 0.02539999999999999900 ), #133 );
#44 = LINE ( 'NONE', #30, #7 ) ;
#45 = DIRECTION ( 'NONE',  ( 0.0000000000000000000, 0.0000000000000000000, 1.000000000000000000 ) ) ;
#46 = AXIS2_PLACEMENT_3D ( 'NONE', #112, #34, #146 ) ;
#47 =( NAMED_UNIT ( * ) PLANE_ANGLE_UNIT ( ) SI_UNIT ( $, .RADIAN. ) );
#48 = CARTESIAN_POINT ( 'NONE',  ( 0.0000000000000000000, 0.0000000000000000000, 0.0000000000000000000 ) ) ;
#49 = CARTESIAN_POINT ( 'NONE',  ( 1.633858267716535600, 0.0000000000000000000, 0.2874015748031496000 ) ) ;
#50 = PRODUCT_CONTEXT ( 'NONE', #136, 'mechanical' ) ;
#51 = CYLINDRICAL_SURFACE ( 'NONE', #91, 1.633858267716535600 ) ;
#52 = EDGE_CURVE ( 'NONE', #132, #114, #44, .T. ) ;
#53 = CYLINDRICAL_SURFACE ( 'NONE', #90, 1.633858267716535600 ) ;
#54 = CARTESIAN_POINT ( 'NONE',  ( 0.0000000000000000000, 0.0000000000000000000, 0.2874015748031496000 ) ) ;
#55 = AXIS2_PLACEMENT_3D ( 'NONE', #140, #75, #26 ) ;
#56 = PRODUCT_DEFINITION_FORMATION_WITH_SPECIFIED_SOURCE ( 'ANY', '', #118, .NOT_KNOWN. ) ;
#57 = EDGE_CURVE ( 'NONE', #114, #86, #128, .T. ) ;
#58 = DIRECTION ( 'NONE',  ( 0.0000000000000000000, 0.0000000000000000000, -1.000000000000000000 ) ) ;
#59 = CLOSED_SHELL ( 'NONE', ( #129, #66, #88, #139 ) ) ;
#60 = PRESENTATION_LAYER_ASSIGNMENT (  '', '', ( #29 ) ) ;
#61 = SURFACE_STYLE_USAGE ( .BOTH. , #98 ) ;
#62 = EDGE_CURVE ( 'NONE', #132, #125, #100, .T. ) ;
#63 = CIRCLE ( 'NONE', #46, 1.633858267716535600 ) ;
#64 = ORIENTED_EDGE ( 'NONE', *, *, #52, .T. ) ;
#65 = PRODUCT_DEFINITION_CONTEXT ( 'detailed design', #71, 'design' ) ;
#66 = ADVANCED_FACE ( 'NONE', ( #135 ), #115, .F. ) ;
#67 = LINE ( 'NONE', #49, #94 ) ;
#68 = AXIS2_PLACEMENT_3D ( 'NONE', #48, #45, #122 ) ;
#69 = DIRECTION ( 'NONE',  ( 0.0000000000000000000, 0.0000000000000000000, 1.000000000000000000 ) ) ;
#70 = PRODUCT_DEFINITION ( 'UNKNOWN', '', #56, #65 ) ;
#71 = APPLICATION_CONTEXT ( 'automotive_design' ) ;
#72 = DIRECTION ( 'NONE',  ( 0.0000000000000000000, 0.0000000000000000000, -1.000000000000000000 ) ) ;
#73 = FILL_AREA_STYLE ('',( #124 ) ) ;
#74 = COLOUR_RGB ( '',0.8000000000000000400, 0.8000000000000000400, 0.8000000000000000400 ) ;
#75 = DIRECTION ( 'NONE',  ( 0.0000000000000000000, 0.0000000000000000000, 1.000000000000000000 ) ) ;
#76 = FACE_OUTER_BOUND ( 'NONE', #120, .T. ) ;
#77 = SURFACE_STYLE_USAGE ( .BOTH. , #8 ) ;
#78 = CARTESIAN_POINT ( 'NONE',  ( 0.0000000000000000000, 0.0000000000000000000, 0.2874015748031496000 ) ) ;
#79 = FILL_AREA_STYLE_COLOUR ( '', #19 ) ;
#80 = ORIENTED_EDGE ( 'NONE', *, *, #116, .F. ) ;
#81 = CARTESIAN_POINT ( 'NONE',  ( 0.0000000000000000000, 0.0000000000000000000, 0.2874015748031496000 ) ) ;
#82 = DIMENSIONAL_EXPONENTS ( 1.000000000000000000, 0.0000000000000000000, 0.0000000000000000000, 0.0000000000000000000, 0.0000000000000000000, 0.0000000000000000000, 0.0000000000000000000 ) ;
#83 = ADVANCED_BREP_SHAPE_REPRESENTATION ( 'RL-109', ( #131, #68 ), #3 ) ;
#84 =( CONVERSION_BASED_UNIT ( 'INCH', #43 ) LENGTH_UNIT ( ) NAMED_UNIT ( #82 ) );
#85 = CARTESIAN_POINT ( 'NONE',  ( 1.633858267716535600, 0.0000000000000000000, 0.0000000000000000000 ) ) ;
#86 = VERTEX_POINT ( 'NONE', #40 ) ;
#87 = SURFACE_STYLE_FILL_AREA ( #73 ) ;
#88 = ADVANCED_FACE ( 'NONE', ( #76 ), #51, .T. ) ;
#89 = EDGE_LOOP ( 'NONE', ( #41, #64, #39, #80 ) ) ;
#90 = AXIS2_PLACEMENT_3D ( 'NONE', #107, #69, #10 ) ;
#91 = AXIS2_PLACEMENT_3D ( 'NONE', #78, #21, #147 ) ;
#92 = FACE_OUTER_BOUND ( 'NONE', #110, .T. ) ;
#93 = DIRECTION ( 'NONE',  ( 0.0000000000000000000, 0.0000000000000000000, 1.000000000000000000 ) ) ;
#94 = VECTOR ( 'NONE', #93, 39.37007874015748100 ) ;
#95 =( NAMED_UNIT ( * ) SI_UNIT ( $, .STERADIAN. ) SOLID_ANGLE_UNIT ( ) );
#96 = DIRECTION ( 'NONE',  ( 0.0000000000000000000, 0.0000000000000000000, 1.000000000000000000 ) ) ;
#97 = DIRECTION ( 'NONE',  ( -1.000000000000000000, 0.0000000000000000000, -0.0000000000000000000 ) ) ;
#98 = SURFACE_SIDE_STYLE ('',( #126 ) ) ;
#99 = PRESENTATION_STYLE_ASSIGNMENT (( #61 ) ) ;
#100 = CIRCLE ( 'NONE', #55, 1.633858267716535600 ) ;
#101 =( GEOMETRIC_REPRESENTATION_CONTEXT ( 3 ) GLOBAL_UNCERTAINTY_ASSIGNED_CONTEXT ( ( #108 ) ) GLOBAL_UNIT_ASSIGNED_CONTEXT ( ( #32, #47, #121 ) ) REPRESENTATION_CONTEXT ( 'NONE', 'WORKASPACE' ) );
#102 = PRESENTATION_LAYER_ASSIGNMENT (  '', '', ( #38 ) ) ;
#103 = DIRECTION ( 'NONE',  ( 1.000000000000000000, 0.0000000000000000000, 0.0000000000000000000 ) ) ;
#104 = ORIENTED_EDGE ( 'NONE', *, *, #105, .F. ) ;
#105 = EDGE_CURVE ( 'NONE', #86, #114, #63, .T. ) ;
#106 = ORIENTED_EDGE ( 'NONE', *, *, #52, .F. ) ;
#107 = CARTESIAN_POINT ( 'NONE',  ( 0.0000000000000000000, 0.0000000000000000000, 0.2874015748031496000 ) ) ;
#108 = UNCERTAINTY_MEASURE_WITH_UNIT (LENGTH_MEASURE( 1.000000000000000100E-005 ), #32, 'distance_accuracy_value', 'NONE');
#109 = PLANE ( 'NONE',  #130 ) ;
#110 = EDGE_LOOP ( 'NONE', ( #2, #17 ) ) ;
#111 =( NAMED_UNIT ( * ) PLANE_ANGLE_UNIT ( ) SI_UNIT ( $, .RADIAN. ) );
#112 = CARTESIAN_POINT ( 'NONE',  ( 0.0000000000000000000, 0.0000000000000000000, 0.2874015748031496000 ) ) ;
#113 = PRODUCT_RELATED_PRODUCT_CATEGORY ( 'part', '', ( #118 ) ) ;
#114 = VERTEX_POINT ( 'NONE', #143 ) ;
#115 = PLANE ( 'NONE',  #144 ) ;
#116 = EDGE_CURVE ( 'NONE', #125, #86, #67, .T. ) ;
#117 = ORIENTED_EDGE ( 'NONE', *, *, #116, .T. ) ;
#118 = PRODUCT ( 'RL-109', 'RL-109', '', ( #50 ) ) ;
#119 = FILL_AREA_STYLE ('',( #79 ) ) ;
#120 = EDGE_LOOP ( 'NONE', ( #106, #14, #117, #5 ) ) ;
#121 =( NAMED_UNIT ( * ) SI_UNIT ( $, .STERADIAN. ) SOLID_ANGLE_UNIT ( ) );
#122 = DIRECTION ( 'NONE',  ( 1.000000000000000000, 0.0000000000000000000, 0.0000000000000000000 ) ) ;
#123 = CARTESIAN_POINT ( 'NONE',  ( -1.633858267716535600, 2.000899297819494500E-016, 0.0000000000000000000 ) ) ;
#124 = FILL_AREA_STYLE_COLOUR ( '', #74 ) ;
#125 = VERTEX_POINT ( 'NONE', #85 ) ;
#126 = SURFACE_STYLE_FILL_AREA ( #119 ) ;
#127 = DIMENSIONAL_EXPONENTS ( 1.000000000000000000, 0.0000000000000000000, 0.0000000000000000000, 0.0000000000000000000, 0.0000000000000000000, 0.0000000000000000000, 0.0000000000000000000 ) ;
#128 = CIRCLE ( 'NONE', #138, 1.633858267716535600 ) ;
#129 = ADVANCED_FACE ( 'NONE', ( #4 ), #53, .T. ) ;
#130 = AXIS2_PLACEMENT_3D ( 'NONE', #148, #72, #33 ) ;
#131 = MANIFOLD_SOLID_BREP ( '1', #59 ) ;
#132 = VERTEX_POINT ( 'NONE', #123 ) ;
#133 =( LENGTH_UNIT ( ) NAMED_UNIT ( * ) SI_UNIT ( $, .METRE. ) );
#134 =( NAMED_UNIT ( * ) PLANE_ANGLE_UNIT ( ) SI_UNIT ( $, .RADIAN. ) );
#135 = FACE_OUTER_BOUND ( 'NONE', #12, .T. ) ;
#136 = APPLICATION_CONTEXT ( 'automotive_design' ) ;
#137 = EDGE_CURVE ( 'NONE', #125, #132, #37, .T. ) ;
#138 = AXIS2_PLACEMENT_3D ( 'NONE', #81, #15, #103 ) ;
#139 = ADVANCED_FACE ( 'NONE', ( #92 ), #109, .T. ) ;
#140 = CARTESIAN_POINT ( 'NONE',  ( 0.0000000000000000000, 0.0000000000000000000, 0.0000000000000000000 ) ) ;
#141 = LENGTH_MEASURE_WITH_UNIT ( LENGTH_MEASURE( 0.02539999999999999900 ), #6 );
#142 =( GEOMETRIC_REPRESENTATION_CONTEXT ( 3 ) GLOBAL_UNCERTAINTY_ASSIGNED_CONTEXT ( ( #1 ) ) GLOBAL_UNIT_ASSIGNED_CONTEXT ( ( #84, #111, #95 ) ) REPRESENTATION_CONTEXT ( 'NONE', 'WORKASPACE' ) );
#143 = CARTESIAN_POINT ( 'NONE',  ( -1.633858267716535600, 2.000899297819494500E-016, 0.2874015748031496000 ) ) ;
#144 = AXIS2_PLACEMENT_3D ( 'NONE', #54, #58, #97 ) ;
#145 =( NAMED_UNIT ( * ) SI_UNIT ( $, .STERADIAN. ) SOLID_ANGLE_UNIT ( ) );
#146 = DIRECTION ( 'NONE',  ( 1.000000000000000000, 0.0000000000000000000, 0.0000000000000000000 ) ) ;
#147 = DIRECTION ( 'NONE',  ( 1.000000000000000000, 0.0000000000000000000, 0.0000000000000000000 ) ) ;
#148 = CARTESIAN_POINT ( 'NONE',  ( 0.0000000000000000000, 0.0000000000000000000, 0.0000000000000000000 ) ) ;
#149 = AXIS2_PLACEMENT_3D ( 'NONE', #22, #96, #20 ) ;
ENDSEC;
END-ISO-10303-21;
