ISO-10303-21;
HEADER;
FILE_DESCRIPTION (( 'STEP AP214' ),
    '1' );
FILE_NAME ('RPSS02-12.step',
    '2017-08-09T17:41:05',
    ( '' ),
    ( '' ),
    'SwSTEP 2.0',
    'SolidWorks 2017',
    '' );
FILE_SCHEMA (( 'AUTOMOTIVE_DESIGN' ));
ENDSEC;

DATA;
#1 = DIRECTION ( 'NONE',  ( 1.000000000000000000, 0.0000000000000000000, 0.0000000000000000000 ) ) ;
#2 = CIRCLE ( 'NONE', #200, 0.05749999999999357000 ) ;
#3 = AXIS2_PLACEMENT_3D ( 'NONE', #54, #36, #188 ) ;
#4 = CARTESIAN_POINT ( 'NONE',  ( 0.06250000000000000000, 0.0000000000000000000, -5.994999999999994800 ) ) ;
#5 = EDGE_CURVE ( 'NONE', #117, #169, #40, .T. ) ;
#6 = COLOUR_RGB ( '',0.7921568627450980000, 0.8196078431372548800, 0.9333333333333333500 ) ;
#7 = DIMENSIONAL_EXPONENTS ( 1.000000000000000000, 0.0000000000000000000, 0.0000000000000000000, 0.0000000000000000000, 0.0000000000000000000, 0.0000000000000000000, 0.0000000000000000000 ) ;
#8 = LENGTH_MEASURE_WITH_UNIT ( LENGTH_MEASURE( 0.02539999999999999900 ), #147 );
#9 = DIRECTION ( 'NONE',  ( -1.000000000000000000, 0.0000000000000000000, 0.0000000000000000000 ) ) ;
#10 = CARTESIAN_POINT ( 'NONE',  ( -0.05749999999999357000, 7.347880794883725500E-018, -6.000000000000000900 ) ) ;
#11 = CARTESIAN_POINT ( 'NONE',  ( -0.06250000000000000000, 0.0000000000000000000, 6.000000000000000900 ) ) ;
#12 = CIRCLE ( 'NONE', #174, 0.05750000000000340900 ) ;
#13 = AXIS2_PLACEMENT_3D ( 'NONE', #56, #191, #74 ) ;
#14 = DIRECTION ( 'NONE',  ( -0.0000000000000000000, -0.0000000000000000000, -1.000000000000000000 ) ) ;
#15 = CLOSED_SHELL ( 'NONE', ( #120, #196, #23, #201, #45, #181, #28, #42 ) ) ;
#16 = DIRECTION ( 'NONE',  ( 1.000000000000000000, 0.0000000000000000000, -0.0000000000000000000 ) ) ;
#17 = ORIENTED_EDGE ( 'NONE', *, *, #205, .T. ) ;
#18 = ORIENTED_EDGE ( 'NONE', *, *, #205, .F. ) ;
#19 = FILL_AREA_STYLE_COLOUR ( '', #202 ) ;
#20 = APPLICATION_CONTEXT ( 'automotive_design' ) ;
#21 = AXIS2_PLACEMENT_3D ( 'NONE', #123, #29, #9 ) ;
#22 = ORIENTED_EDGE ( 'NONE', *, *, #85, .T. ) ;
#23 = ADVANCED_FACE ( 'NONE', ( #140 ), #98, .T. ) ;
#24 = ORIENTED_EDGE ( 'NONE', *, *, #177, .F. ) ;
#25 = AXIS2_PLACEMENT_3D ( 'NONE', #230, #110, #249 ) ;
#26 = VERTEX_POINT ( 'NONE', #83 ) ;
#27 = VERTEX_POINT ( 'NONE', #220 ) ;
#28 = ADVANCED_FACE ( 'NONE', ( #145 ), #50, .T. ) ;
#29 = DIRECTION ( 'NONE',  ( 0.0000000000000000000, 0.0000000000000000000, -1.000000000000000000 ) ) ;
#30 = DIRECTION ( 'NONE',  ( -0.0000000000000000000, -0.0000000000000000000, -1.000000000000000000 ) ) ;
#31 = AXIS2_PLACEMENT_3D ( 'NONE', #203, #241, #63 ) ;
#32 = FILL_AREA_STYLE ('',( #143 ) ) ;
#33 = CARTESIAN_POINT ( 'NONE',  ( 0.0000000000000000000, 0.0000000000000000000, -5.994999999999994800 ) ) ;
#34 = VERTEX_POINT ( 'NONE', #10 ) ;
#35 = CARTESIAN_POINT ( 'NONE',  ( 0.06250000000000000000, 7.654042494670956000E-018, -5.994999999999994800 ) ) ;
#36 = DIRECTION ( 'NONE',  ( -0.0000000000000000000, -0.0000000000000000000, 1.000000000000000000 ) ) ;
#37 = FACE_OUTER_BOUND ( 'NONE', #121, .T. ) ;
#38 = FILL_AREA_STYLE ('',( #19 ) ) ;
#39 = ADVANCED_BREP_SHAPE_REPRESENTATION ( 'RPSS02-12', ( #122, #153 ), #52 ) ;
#40 = LINE ( 'NONE', #4, #88 ) ;
#41 = AXIS2_PLACEMENT_3D ( 'NONE', #229, #247, #69 ) ;
#42 = ADVANCED_FACE ( 'NONE', ( #102 ), #152, .T. ) ;
#43 = AXIS2_PLACEMENT_3D ( 'NONE', #141, #182, #160 ) ;
#44 = LINE ( 'NONE', #125, #195 ) ;
#45 = ADVANCED_FACE ( 'NONE', ( #246 ), #64, .T. ) ;
#46 = DIMENSIONAL_EXPONENTS ( 1.000000000000000000, 0.0000000000000000000, 0.0000000000000000000, 0.0000000000000000000, 0.0000000000000000000, 0.0000000000000000000, 0.0000000000000000000 ) ;
#47 = CIRCLE ( 'NONE', #13, 0.06250000000000000000 ) ;
#48 = CARTESIAN_POINT ( 'NONE',  ( 0.05750000000000340900, 7.347880794884327900E-018, 6.000000000000000900 ) ) ;
#49 = SURFACE_STYLE_USAGE ( .BOTH. , #164 ) ;
#50 = CONICAL_SURFACE ( 'NONE', #31, 0.06250000000000000000, 0.7853981633974817000 ) ;
#51 = DIRECTION ( 'NONE',  ( 1.000000000000000000, 0.0000000000000000000, 0.0000000000000000000 ) ) ;
#52 =( GEOMETRIC_REPRESENTATION_CONTEXT ( 3 ) GLOBAL_UNCERTAINTY_ASSIGNED_CONTEXT ( ( #79 ) ) GLOBAL_UNIT_ASSIGNED_CONTEXT ( ( #95, #231, #111 ) ) REPRESENTATION_CONTEXT ( 'NONE', 'WORKASPACE' ) );
#53 = CARTESIAN_POINT ( 'NONE',  ( 0.06250000000000000000, 7.654042494670956000E-018, 5.995000000000004500 ) ) ;
#54 = CARTESIAN_POINT ( 'NONE',  ( 0.0000000000000000000, 0.0000000000000000000, -5.994999999999994800 ) ) ;
#55 = CARTESIAN_POINT ( 'NONE',  ( 0.05750000000000340900, 7.041719095097698300E-018, 6.000000000000000900 ) ) ;
#56 = CARTESIAN_POINT ( 'NONE',  ( 0.0000000000000000000, 0.0000000000000000000, -5.994999999999994800 ) ) ;
#57 = SURFACE_STYLE_USAGE ( .BOTH. , #173 ) ;
#58 = PRODUCT_DEFINITION_SHAPE ( 'NONE', 'NONE',  #168 ) ;
#59 = FACE_OUTER_BOUND ( 'NONE', #62, .T. ) ;
#60 = CONICAL_SURFACE ( 'NONE', #97, 0.05750000000000340900, 0.7853981633974815900 ) ;
#61 = VERTEX_POINT ( 'NONE', #48 ) ;
#62 = EDGE_LOOP ( 'NONE', ( #239, #17, #129, #175 ) ) ;
#63 = DIRECTION ( 'NONE',  ( 1.000000000000000000, 0.0000000000000000000, 0.0000000000000000000 ) ) ;
#64 = PLANE ( 'NONE',  #80 ) ;
#65 = DIRECTION ( 'NONE',  ( 0.0000000000000000000, 0.0000000000000000000, -1.000000000000000000 ) ) ;
#66 = AXIS2_PLACEMENT_3D ( 'NONE', #223, #104, #244 ) ;
#67 =( CONVERSION_BASED_UNIT ( 'INCH', #222 ) LENGTH_UNIT ( ) NAMED_UNIT ( #7 ) );
#68 = CARTESIAN_POINT ( 'NONE',  ( -0.05750000000000340900, 0.0000000000000000000, 6.000000000000000900 ) ) ;
#69 = DIRECTION ( 'NONE',  ( -1.000000000000000000, 0.0000000000000000000, 0.0000000000000000000 ) ) ;
#70 = ORIENTED_EDGE ( 'NONE', *, *, #149, .F. ) ;
#71 = EDGE_LOOP ( 'NONE', ( #170, #234 ) ) ;
#72 = CARTESIAN_POINT ( 'NONE',  ( 0.0000000000000000000, 0.0000000000000000000, 5.995000000000004500 ) ) ;
#73 = CARTESIAN_POINT ( 'NONE',  ( -0.05750000000000340900, 0.0000000000000000000, 6.000000000000000900 ) ) ;
#74 = DIRECTION ( 'NONE',  ( 1.000000000000000000, 0.0000000000000000000, 0.0000000000000000000 ) ) ;
#75 =( CONVERSION_BASED_UNIT ( 'INCH', #101 ) LENGTH_UNIT ( ) NAMED_UNIT ( #46 ) );
#76 = STYLED_ITEM ( 'NONE', ( #132 ), #39 ) ;
#77 = ORIENTED_EDGE ( 'NONE', *, *, #162, .T. ) ;
#78 = EDGE_LOOP ( 'NONE', ( #18, #81, #77, #217 ) ) ;
#79 = UNCERTAINTY_MEASURE_WITH_UNIT (LENGTH_MEASURE( 1.000000000000000100E-005 ), #95, 'distance_accuracy_value', 'NONE');
#80 = AXIS2_PLACEMENT_3D ( 'NONE', #161, #86, #221 ) ;
#81 = ORIENTED_EDGE ( 'NONE', *, *, #138, .F. ) ;
#82 = DIMENSIONAL_EXPONENTS ( 1.000000000000000000, 0.0000000000000000000, 0.0000000000000000000, 0.0000000000000000000, 0.0000000000000000000, 0.0000000000000000000, 0.0000000000000000000 ) ;
#83 = CARTESIAN_POINT ( 'NONE',  ( -0.06250000000000000000, 0.0000000000000000000, 5.995000000000004500 ) ) ;
#84 = LINE ( 'NONE', #55, #94 ) ;
#85 = EDGE_CURVE ( 'NONE', #179, #169, #44, .T. ) ;
#86 = DIRECTION ( 'NONE',  ( 0.0000000000000000000, 0.0000000000000000000, 1.000000000000000000 ) ) ;
#87 =( NAMED_UNIT ( * ) SI_UNIT ( $, .STERADIAN. ) SOLID_ANGLE_UNIT ( ) );
#88 = VECTOR ( 'NONE', #159, 39.37007874015748100 ) ;
#89 = DIRECTION ( 'NONE',  ( 0.0000000000000000000, 0.0000000000000000000, 1.000000000000000000 ) ) ;
#90 = PRESENTATION_LAYER_ASSIGNMENT (  '', '', ( #76 ) ) ;
#91 = CARTESIAN_POINT ( 'NONE',  ( 0.0000000000000000000, 0.0000000000000000000, -6.000000000000000900 ) ) ;
#92 = DIRECTION ( 'NONE',  ( 1.000000000000000000, 0.0000000000000000000, 0.0000000000000000000 ) ) ;
#93 = DIRECTION ( 'NONE',  ( -0.7071067811865711100, 8.659560562355221300E-017, 0.7071067811865239200 ) ) ;
#94 = VECTOR ( 'NONE', #189, 39.37007874015748900 ) ;
#95 =( CONVERSION_BASED_UNIT ( 'INCH', #8 ) LENGTH_UNIT ( ) NAMED_UNIT ( #82 ) );
#96 =( NAMED_UNIT ( * ) SI_UNIT ( $, .STERADIAN. ) SOLID_ANGLE_UNIT ( ) );
#97 = AXIS2_PLACEMENT_3D ( 'NONE', #127, #65, #206 ) ;
#98 = CYLINDRICAL_SURFACE ( 'NONE', #43, 0.06250000000000000000 ) ;
#99 = VECTOR ( 'NONE', #93, 39.37007874015748100 ) ;
#100 = EDGE_CURVE ( 'NONE', #26, #27, #199, .T. ) ;
#101 = LENGTH_MEASURE_WITH_UNIT ( LENGTH_MEASURE( 0.02539999999999999900 ), #192 );
#102 = FACE_OUTER_BOUND ( 'NONE', #78, .T. ) ;
#103 = MECHANICAL_DESIGN_GEOMETRIC_PRESENTATION_REPRESENTATION (  '', ( #76 ), #115 ) ;
#104 = DIRECTION ( 'NONE',  ( 0.0000000000000000000, 0.0000000000000000000, -1.000000000000000000 ) ) ;
#105 = LINE ( 'NONE', #68, #235 ) ;
#106 = STYLED_ITEM ( 'NONE', ( #163 ), #122 ) ;
#107 = DIRECTION ( 'NONE',  ( -0.7071067811865710000, 0.0000000000000000000, -0.7071067811865239200 ) ) ;
#108 = DIRECTION ( 'NONE',  ( 1.000000000000000000, 0.0000000000000000000, 0.0000000000000000000 ) ) ;
#109 = ORIENTED_EDGE ( 'NONE', *, *, #124, .T. ) ;
#110 = DIRECTION ( 'NONE',  ( 0.0000000000000000000, 0.0000000000000000000, 1.000000000000000000 ) ) ;
#111 =( NAMED_UNIT ( * ) SI_UNIT ( $, .STERADIAN. ) SOLID_ANGLE_UNIT ( ) );
#112 = EDGE_CURVE ( 'NONE', #179, #26, #238, .T. ) ;
#113 = DIRECTION ( 'NONE',  ( 0.0000000000000000000, 0.0000000000000000000, 1.000000000000000000 ) ) ;
#114 = SURFACE_STYLE_FILL_AREA ( #32 ) ;
#115 =( GEOMETRIC_REPRESENTATION_CONTEXT ( 3 ) GLOBAL_UNCERTAINTY_ASSIGNED_CONTEXT ( ( #151 ) ) GLOBAL_UNIT_ASSIGNED_CONTEXT ( ( #75, #214, #96 ) ) REPRESENTATION_CONTEXT ( 'NONE', 'WORKASPACE' ) );
#116 = ORIENTED_EDGE ( 'NONE', *, *, #100, .T. ) ;
#117 = VERTEX_POINT ( 'NONE', #204 ) ;
#118 = PRESENTATION_LAYER_ASSIGNMENT (  '', '', ( #106 ) ) ;
#119 = ORIENTED_EDGE ( 'NONE', *, *, #193, .T. ) ;
#120 = ADVANCED_FACE ( 'NONE', ( #59 ), #60, .T. ) ;
#121 = EDGE_LOOP ( 'NONE', ( #24, #130, #216, #156 ) ) ;
#122 = MANIFOLD_SOLID_BREP ( 'Chamfer1', #15 ) ;
#123 = CARTESIAN_POINT ( 'NONE',  ( 0.0000000000000000000, 0.0000000000000000000, 6.000000000000000900 ) ) ;
#124 = EDGE_CURVE ( 'NONE', #27, #169, #215, .T. ) ;
#125 = CARTESIAN_POINT ( 'NONE',  ( 0.06250000000000000000, 7.654042494670956000E-018, 6.000000000000000900 ) ) ;
#126 = UNCERTAINTY_MEASURE_WITH_UNIT (LENGTH_MEASURE( 1.000000000000000100E-005 ), #67, 'distance_accuracy_value', 'NONE');
#127 = CARTESIAN_POINT ( 'NONE',  ( 0.0000000000000000000, 0.0000000000000000000, 6.000000000000000900 ) ) ;
#128 = CARTESIAN_POINT ( 'NONE',  ( 0.0000000000000000000, 0.0000000000000000000, -6.000000000000000900 ) ) ;
#129 = ORIENTED_EDGE ( 'NONE', *, *, #193, .F. ) ;
#130 = ORIENTED_EDGE ( 'NONE', *, *, #232, .T. ) ;
#131 = DIRECTION ( 'NONE',  ( 0.0000000000000000000, 0.0000000000000000000, 1.000000000000000000 ) ) ;
#132 = PRESENTATION_STYLE_ASSIGNMENT (( #57 ) ) ;
#133 = APPLICATION_PROTOCOL_DEFINITION ( 'draft international standard', 'automotive_design', 1998, #148 ) ;
#134 = PRODUCT_CONTEXT ( 'NONE', #148, 'mechanical' ) ;
#135 = MECHANICAL_DESIGN_GEOMETRIC_PRESENTATION_REPRESENTATION (  '', ( #106 ), #144 ) ;
#136 = ORIENTED_EDGE ( 'NONE', *, *, #85, .F. ) ;
#137 = CIRCLE ( 'NONE', #224, 0.06250000000000000000 ) ;
#138 = EDGE_CURVE ( 'NONE', #245, #61, #12, .T. ) ;
#139 = ORIENTED_EDGE ( 'NONE', *, *, #232, .F. ) ;
#140 = FACE_OUTER_BOUND ( 'NONE', #233, .T. ) ;
#141 = CARTESIAN_POINT ( 'NONE',  ( 0.0000000000000000000, 0.0000000000000000000, 6.000000000000000900 ) ) ;
#142 = CIRCLE ( 'NONE', #25, 0.05750000000000340900 ) ;
#143 = FILL_AREA_STYLE_COLOUR ( '', #6 ) ;
#144 =( GEOMETRIC_REPRESENTATION_CONTEXT ( 3 ) GLOBAL_UNCERTAINTY_ASSIGNED_CONTEXT ( ( #126 ) ) GLOBAL_UNIT_ASSIGNED_CONTEXT ( ( #67, #208, #87 ) ) REPRESENTATION_CONTEXT ( 'NONE', 'WORKASPACE' ) );
#145 = FACE_OUTER_BOUND ( 'NONE', #157, .T. ) ;
#146 = DIRECTION ( 'NONE',  ( 1.000000000000000000, 0.0000000000000000000, 0.0000000000000000000 ) ) ;
#147 =( LENGTH_UNIT ( ) NAMED_UNIT ( * ) SI_UNIT ( $, .METRE. ) );
#148 = APPLICATION_CONTEXT ( 'automotive_design' ) ;
#149 = EDGE_CURVE ( 'NONE', #117, #34, #154, .T. ) ;
#150 = APPLICATION_PROTOCOL_DEFINITION ( 'draft international standard', 'automotive_design', 1998, #20 ) ;
#151 = UNCERTAINTY_MEASURE_WITH_UNIT (LENGTH_MEASURE( 1.000000000000000100E-005 ), #75, 'distance_accuracy_value', 'NONE');
#152 = CONICAL_SURFACE ( 'NONE', #21, 0.05750000000000340900, 0.7853981633974815900 ) ;
#153 = AXIS2_PLACEMENT_3D ( 'NONE', #172, #113, #1 ) ;
#154 = CIRCLE ( 'NONE', #185, 0.05749999999999357000 ) ;
#155 = AXIS2_PLACEMENT_3D ( 'NONE', #33, #165, #51 ) ;
#156 = ORIENTED_EDGE ( 'NONE', *, *, #5, .F. ) ;
#157 = EDGE_LOOP ( 'NONE', ( #139, #70, #219, #187 ) ) ;
#158 = ORIENTED_EDGE ( 'NONE', *, *, #100, .F. ) ;
#159 = DIRECTION ( 'NONE',  ( 0.7071067811865711100, 0.0000000000000000000, 0.7071067811865239200 ) ) ;
#160 = DIRECTION ( 'NONE',  ( -1.000000000000000000, 0.0000000000000000000, 0.0000000000000000000 ) ) ;
#161 = CARTESIAN_POINT ( 'NONE',  ( 0.0000000000000000000, 0.0000000000000000000, 6.000000000000000900 ) ) ;
#162 = EDGE_CURVE ( 'NONE', #245, #26, #105, .T. ) ;
#163 = PRESENTATION_STYLE_ASSIGNMENT (( #49 ) ) ;
#164 = SURFACE_SIDE_STYLE ('',( #114 ) ) ;
#165 = DIRECTION ( 'NONE',  ( -0.0000000000000000000, -0.0000000000000000000, 1.000000000000000000 ) ) ;
#166 = SHAPE_DEFINITION_REPRESENTATION ( #58, #39 ) ;
#167 = PLANE ( 'NONE',  #237 ) ;
#168 = PRODUCT_DEFINITION ( 'UNKNOWN', '', #180, #171 ) ;
#169 = VERTEX_POINT ( 'NONE', #35 ) ;
#170 = ORIENTED_EDGE ( 'NONE', *, *, #138, .T. ) ;
#171 = PRODUCT_DEFINITION_CONTEXT ( 'detailed design', #20, 'design' ) ;
#172 = CARTESIAN_POINT ( 'NONE',  ( 0.0000000000000000000, 0.0000000000000000000, 0.0000000000000000000 ) ) ;
#173 = SURFACE_SIDE_STYLE ('',( #236 ) ) ;
#174 = AXIS2_PLACEMENT_3D ( 'NONE', #209, #89, #225 ) ;
#175 = ORIENTED_EDGE ( 'NONE', *, *, #162, .F. ) ;
#176 = ORIENTED_EDGE ( 'NONE', *, *, #149, .T. ) ;
#177 = EDGE_CURVE ( 'NONE', #34, #117, #2, .T. ) ;
#178 = ORIENTED_EDGE ( 'NONE', *, *, #112, .T. ) ;
#179 = VERTEX_POINT ( 'NONE', #53 ) ;
#180 = PRODUCT_DEFINITION_FORMATION_WITH_SPECIFIED_SOURCE ( 'ANY', '', #212, .NOT_KNOWN. ) ;
#181 = ADVANCED_FACE ( 'NONE', ( #183 ), #167, .F. ) ;
#182 = DIRECTION ( 'NONE',  ( -0.0000000000000000000, -0.0000000000000000000, -1.000000000000000000 ) ) ;
#183 = FACE_OUTER_BOUND ( 'NONE', #186, .T. ) ;
#184 =( LENGTH_UNIT ( ) NAMED_UNIT ( * ) SI_UNIT ( $, .METRE. ) );
#185 = AXIS2_PLACEMENT_3D ( 'NONE', #128, #14, #146 ) ;
#186 = EDGE_LOOP ( 'NONE', ( #176, #194 ) ) ;
#187 = ORIENTED_EDGE ( 'NONE', *, *, #124, .F. ) ;
#188 = DIRECTION ( 'NONE',  ( 1.000000000000000000, 0.0000000000000000000, 0.0000000000000000000 ) ) ;
#189 = DIRECTION ( 'NONE',  ( 0.7071067811865710000, 8.659560562355221300E-017, -0.7071067811865239200 ) ) ;
#190 = FACE_OUTER_BOUND ( 'NONE', #226, .T. ) ;
#191 = DIRECTION ( 'NONE',  ( -0.0000000000000000000, -0.0000000000000000000, 1.000000000000000000 ) ) ;
#192 =( LENGTH_UNIT ( ) NAMED_UNIT ( * ) SI_UNIT ( $, .METRE. ) );
#193 = EDGE_CURVE ( 'NONE', #26, #179, #137, .T. ) ;
#194 = ORIENTED_EDGE ( 'NONE', *, *, #177, .T. ) ;
#195 = VECTOR ( 'NONE', #242, 39.37007874015748100 ) ;
#196 = ADVANCED_FACE ( 'NONE', ( #37 ), #198, .T. ) ;
#197 = PRODUCT_RELATED_PRODUCT_CATEGORY ( 'part', '', ( #212 ) ) ;
#198 = CONICAL_SURFACE ( 'NONE', #3, 0.06250000000000000000, 0.7853981633974817000 ) ;
#199 = LINE ( 'NONE', #11, #207 ) ;
#200 = AXIS2_PLACEMENT_3D ( 'NONE', #91, #228, #108 ) ;
#201 = ADVANCED_FACE ( 'NONE', ( #190 ), #240, .T. ) ;
#202 = COLOUR_RGB ( '',0.7921568627450980000, 0.8196078431372548800, 0.9333333333333333500 ) ;
#203 = CARTESIAN_POINT ( 'NONE',  ( 0.0000000000000000000, 0.0000000000000000000, -5.994999999999994800 ) ) ;
#204 = CARTESIAN_POINT ( 'NONE',  ( 0.05749999999999357000, 0.0000000000000000000, -6.000000000000000900 ) ) ;
#205 = EDGE_CURVE ( 'NONE', #61, #179, #84, .T. ) ;
#206 = DIRECTION ( 'NONE',  ( -1.000000000000000000, 0.0000000000000000000, 0.0000000000000000000 ) ) ;
#207 = VECTOR ( 'NONE', #30, 39.37007874015748100 ) ;
#208 =( NAMED_UNIT ( * ) PLANE_ANGLE_UNIT ( ) SI_UNIT ( $, .RADIAN. ) );
#209 = CARTESIAN_POINT ( 'NONE',  ( 0.0000000000000000000, 0.0000000000000000000, 6.000000000000000900 ) ) ;
#210 = CARTESIAN_POINT ( 'NONE',  ( 0.0000000000000000000, 0.0000000000000000000, -6.000000000000000900 ) ) ;
#211 = DIRECTION ( 'NONE',  ( 0.0000000000000000000, 0.0000000000000000000, -1.000000000000000000 ) ) ;
#212 = PRODUCT ( 'RPSS02-12', 'RPSS02-12', '', ( #134 ) ) ;
#213 = CARTESIAN_POINT ( 'NONE',  ( -0.06250000000000000000, 7.654042494670957500E-018, -5.994999999999994800 ) ) ;
#214 =( NAMED_UNIT ( * ) PLANE_ANGLE_UNIT ( ) SI_UNIT ( $, .RADIAN. ) );
#215 = CIRCLE ( 'NONE', #155, 0.06250000000000000000 ) ;
#216 = ORIENTED_EDGE ( 'NONE', *, *, #243, .F. ) ;
#217 = ORIENTED_EDGE ( 'NONE', *, *, #112, .F. ) ;
#218 = EDGE_CURVE ( 'NONE', #61, #245, #142, .T. ) ;
#219 = ORIENTED_EDGE ( 'NONE', *, *, #5, .T. ) ;
#220 = CARTESIAN_POINT ( 'NONE',  ( -0.06250000000000000000, 0.0000000000000000000, -5.994999999999994800 ) ) ;
#221 = DIRECTION ( 'NONE',  ( 1.000000000000000000, 0.0000000000000000000, -0.0000000000000000000 ) ) ;
#222 = LENGTH_MEASURE_WITH_UNIT ( LENGTH_MEASURE( 0.02539999999999999900 ), #184 );
#223 = CARTESIAN_POINT ( 'NONE',  ( 0.0000000000000000000, 0.0000000000000000000, 5.995000000000004500 ) ) ;
#224 = AXIS2_PLACEMENT_3D ( 'NONE', #72, #211, #92 ) ;
#225 = DIRECTION ( 'NONE',  ( 1.000000000000000000, 0.0000000000000000000, 0.0000000000000000000 ) ) ;
#226 = EDGE_LOOP ( 'NONE', ( #136, #178, #116, #109 ) ) ;
#227 = ORIENTED_EDGE ( 'NONE', *, *, #243, .T. ) ;
#228 = DIRECTION ( 'NONE',  ( -0.0000000000000000000, -0.0000000000000000000, -1.000000000000000000 ) ) ;
#229 = CARTESIAN_POINT ( 'NONE',  ( 0.0000000000000000000, 0.0000000000000000000, 6.000000000000000900 ) ) ;
#230 = CARTESIAN_POINT ( 'NONE',  ( 0.0000000000000000000, 0.0000000000000000000, 6.000000000000000900 ) ) ;
#231 =( NAMED_UNIT ( * ) PLANE_ANGLE_UNIT ( ) SI_UNIT ( $, .RADIAN. ) );
#232 = EDGE_CURVE ( 'NONE', #34, #27, #248, .T. ) ;
#233 = EDGE_LOOP ( 'NONE', ( #119, #22, #227, #158 ) ) ;
#234 = ORIENTED_EDGE ( 'NONE', *, *, #218, .T. ) ;
#235 = VECTOR ( 'NONE', #107, 39.37007874015748900 ) ;
#236 = SURFACE_STYLE_FILL_AREA ( #38 ) ;
#237 = AXIS2_PLACEMENT_3D ( 'NONE', #210, #131, #16 ) ;
#238 = CIRCLE ( 'NONE', #66, 0.06250000000000000000 ) ;
#239 = ORIENTED_EDGE ( 'NONE', *, *, #218, .F. ) ;
#240 = CYLINDRICAL_SURFACE ( 'NONE', #41, 0.06250000000000000000 ) ;
#241 = DIRECTION ( 'NONE',  ( -0.0000000000000000000, -0.0000000000000000000, 1.000000000000000000 ) ) ;
#242 = DIRECTION ( 'NONE',  ( -0.0000000000000000000, -0.0000000000000000000, -1.000000000000000000 ) ) ;
#243 = EDGE_CURVE ( 'NONE', #169, #27, #47, .T. ) ;
#244 = DIRECTION ( 'NONE',  ( 1.000000000000000000, 0.0000000000000000000, 0.0000000000000000000 ) ) ;
#245 = VERTEX_POINT ( 'NONE', #73 ) ;
#246 = FACE_OUTER_BOUND ( 'NONE', #71, .T. ) ;
#247 = DIRECTION ( 'NONE',  ( -0.0000000000000000000, -0.0000000000000000000, -1.000000000000000000 ) ) ;
#248 = LINE ( 'NONE', #213, #99 ) ;
#249 = DIRECTION ( 'NONE',  ( 1.000000000000000000, 0.0000000000000000000, 0.0000000000000000000 ) ) ;
ENDSEC;
END-ISO-10303-21;
