ISO-10303-21;
HEADER;
FILE_DESCRIPTION (( 'STEP AP214' ),
    '1' );
FILE_NAME ('RPSS02-24.step',
    '2017-08-09T17:41:22',
    ( '' ),
    ( '' ),
    'SwSTEP 2.0',
    'SolidWorks 2017',
    '' );
FILE_SCHEMA (( 'AUTOMOTIVE_DESIGN' ));
ENDSEC;

DATA;
#1 = EDGE_LOOP ( 'NONE', ( #104, #156, #160, #237 ) ) ;
#2 = DIRECTION ( 'NONE',  ( 1.000000000000000000, 0.0000000000000000000, 0.0000000000000000000 ) ) ;
#3 = CARTESIAN_POINT ( 'NONE',  ( -0.06250000000000000000, 7.654042494670957500E-018, -11.99499999999998300 ) ) ;
#4 = EDGE_LOOP ( 'NONE', ( #98, #29, #15, #45 ) ) ;
#5 = DIRECTION ( 'NONE',  ( 0.0000000000000000000, 0.0000000000000000000, 1.000000000000000000 ) ) ;
#6 = EDGE_CURVE ( 'NONE', #149, #135, #178, .T. ) ;
#7 = DIMENSIONAL_EXPONENTS ( 1.000000000000000000, 0.0000000000000000000, 0.0000000000000000000, 0.0000000000000000000, 0.0000000000000000000, 0.0000000000000000000, 0.0000000000000000000 ) ;
#8 = CIRCLE ( 'NONE', #54, 0.06250000000000000000 ) ;
#9 = AXIS2_PLACEMENT_3D ( 'NONE', #124, #5, #139 ) ;
#10 = CARTESIAN_POINT ( 'NONE',  ( 0.0000000000000000000, 0.0000000000000000000, -11.99499999999998300 ) ) ;
#11 = DIRECTION ( 'NONE',  ( 0.7071067811863391800, 0.0000000000000000000, 0.7071067811867557400 ) ) ;
#12 = ORIENTED_EDGE ( 'NONE', *, *, #223, .F. ) ;
#13 = SURFACE_STYLE_USAGE ( .BOTH. , #126 ) ;
#14 = AXIS2_PLACEMENT_3D ( 'NONE', #61, #186, #75 ) ;
#15 = ORIENTED_EDGE ( 'NONE', *, *, #16, .T. ) ;
#16 = EDGE_CURVE ( 'NONE', #102, #174, #188, .T. ) ;
#17 = DIRECTION ( 'NONE',  ( 1.000000000000000000, 0.0000000000000000000, 0.0000000000000000000 ) ) ;
#18 = CARTESIAN_POINT ( 'NONE',  ( 0.06250000000000000000, 7.654042494670956000E-018, 11.99500000000001200 ) ) ;
#19 = CIRCLE ( 'NONE', #167, 0.06250000000000000000 ) ;
#20 = PRODUCT_DEFINITION ( 'UNKNOWN', '', #34, #213 ) ;
#21 = CARTESIAN_POINT ( 'NONE',  ( -0.06250000000000000000, 0.0000000000000000000, 12.00000000000000200 ) ) ;
#22 = SURFACE_STYLE_FILL_AREA ( #159 ) ;
#23 = DIRECTION ( 'NONE',  ( -1.000000000000000000, 0.0000000000000000000, 0.0000000000000000000 ) ) ;
#24 = PRODUCT_CONTEXT ( 'NONE', #108, 'mechanical' ) ;
#25 = COLOUR_RGB ( '',0.7921568627450980000, 0.8196078431372548800, 0.9333333333333333500 ) ;
#26 = VECTOR ( 'NONE', #119, 39.37007874015748900 ) ;
#27 = ADVANCED_FACE ( 'NONE', ( #37 ), #171, .T. ) ;
#28 = AXIS2_PLACEMENT_3D ( 'NONE', #202, #96, #225 ) ;
#29 = ORIENTED_EDGE ( 'NONE', *, *, #46, .T. ) ;
#30 = DIRECTION ( 'NONE',  ( 1.000000000000000000, 0.0000000000000000000, 0.0000000000000000000 ) ) ;
#31 = DIRECTION ( 'NONE',  ( 1.000000000000000000, 0.0000000000000000000, 0.0000000000000000000 ) ) ;
#32 = EDGE_CURVE ( 'NONE', #102, #184, #82, .T. ) ;
#33 = FACE_OUTER_BOUND ( 'NONE', #164, .T. ) ;
#34 = PRODUCT_DEFINITION_FORMATION_WITH_SPECIFIED_SOURCE ( 'ANY', '', #39, .NOT_KNOWN. ) ;
#35 = ORIENTED_EDGE ( 'NONE', *, *, #95, .T. ) ;
#36 = DIRECTION ( 'NONE',  ( 0.0000000000000000000, 0.0000000000000000000, -1.000000000000000000 ) ) ;
#37 = FACE_OUTER_BOUND ( 'NONE', #169, .T. ) ;
#38 = CARTESIAN_POINT ( 'NONE',  ( 0.05749999999998592300, 0.0000000000000000000, -12.00000000000000200 ) ) ;
#39 = PRODUCT ( 'RPSS02-24', 'RPSS02-24', '', ( #24 ) ) ;
#40 = EDGE_LOOP ( 'NONE', ( #35, #130 ) ) ;
#41 = DIRECTION ( 'NONE',  ( -0.7071067811864938400, 0.0000000000000000000, -0.7071067811866013100 ) ) ;
#42 = DIRECTION ( 'NONE',  ( -1.000000000000000000, 0.0000000000000000000, 0.0000000000000000000 ) ) ;
#43 = VECTOR ( 'NONE', #217, 39.37007874015748100 ) ;
#44 = APPLICATION_PROTOCOL_DEFINITION ( 'draft international standard', 'automotive_design', 1998, #157 ) ;
#45 = ORIENTED_EDGE ( 'NONE', *, *, #71, .T. ) ;
#46 = EDGE_CURVE ( 'NONE', #184, #102, #89, .T. ) ;
#47 = ADVANCED_FACE ( 'NONE', ( #234 ), #127, .T. ) ;
#48 = FACE_OUTER_BOUND ( 'NONE', #111, .T. ) ;
#49 = PRODUCT_RELATED_PRODUCT_CATEGORY ( 'part', '', ( #39 ) ) ;
#50 = SURFACE_SIDE_STYLE ('',( #22 ) ) ;
#51 = DIRECTION ( 'NONE',  ( -1.000000000000000000, 0.0000000000000000000, 0.0000000000000000000 ) ) ;
#52 = ORIENTED_EDGE ( 'NONE', *, *, #182, .F. ) ;
#53 =( CONVERSION_BASED_UNIT ( 'INCH', #233 ) LENGTH_UNIT ( ) NAMED_UNIT ( #172 ) );
#54 = AXIS2_PLACEMENT_3D ( 'NONE', #10, #144, #30 ) ;
#55 = ORIENTED_EDGE ( 'NONE', *, *, #198, .F. ) ;
#56 = ORIENTED_EDGE ( 'NONE', *, *, #95, .F. ) ;
#57 = LENGTH_MEASURE_WITH_UNIT ( LENGTH_MEASURE( 0.02539999999999999900 ), #68 );
#58 = DIRECTION ( 'NONE',  ( -1.000000000000000000, 0.0000000000000000000, 0.0000000000000000000 ) ) ;
#59 = EDGE_CURVE ( 'NONE', #135, #102, #146, .T. ) ;
#60 = CARTESIAN_POINT ( 'NONE',  ( -0.05750000000001215300, 0.0000000000000000000, 12.00000000000000200 ) ) ;
#61 = CARTESIAN_POINT ( 'NONE',  ( 0.0000000000000000000, 0.0000000000000000000, -12.00000000000000200 ) ) ;
#62 = CONICAL_SURFACE ( 'NONE', #179, 0.06250000000000000000, 0.7853981633971537400 ) ;
#63 = DIRECTION ( 'NONE',  ( 0.0000000000000000000, 0.0000000000000000000, 1.000000000000000000 ) ) ;
#64 = ORIENTED_EDGE ( 'NONE', *, *, #198, .T. ) ;
#65 = ADVANCED_FACE ( 'NONE', ( #224 ), #62, .T. ) ;
#66 = LINE ( 'NONE', #192, #214 ) ;
#67 = AXIS2_PLACEMENT_3D ( 'NONE', #168, #97, #226 ) ;
#68 =( LENGTH_UNIT ( ) NAMED_UNIT ( * ) SI_UNIT ( $, .METRE. ) );
#69 = ORIENTED_EDGE ( 'NONE', *, *, #6, .F. ) ;
#70 =( NAMED_UNIT ( * ) SI_UNIT ( $, .STERADIAN. ) SOLID_ANGLE_UNIT ( ) );
#71 = EDGE_CURVE ( 'NONE', #174, #140, #19, .T. ) ;
#72 = EDGE_LOOP ( 'NONE', ( #118, #245, #64, #105 ) ) ;
#73 = DIRECTION ( 'NONE',  ( 0.0000000000000000000, 0.0000000000000000000, 1.000000000000000000 ) ) ;
#74 = LINE ( 'NONE', #3, #26 ) ;
#75 = DIRECTION ( 'NONE',  ( 1.000000000000000000, 0.0000000000000000000, 0.0000000000000000000 ) ) ;
#76 = STYLED_ITEM ( 'NONE', ( #205 ), #204 ) ;
#77 = CARTESIAN_POINT ( 'NONE',  ( 0.0000000000000000000, 0.0000000000000000000, -11.99499999999998300 ) ) ;
#78 = EDGE_LOOP ( 'NONE', ( #52, #246, #55, #200 ) ) ;
#79 = DIRECTION ( 'NONE',  ( 1.000000000000000000, 0.0000000000000000000, 0.0000000000000000000 ) ) ;
#80 = CARTESIAN_POINT ( 'NONE',  ( 0.0000000000000000000, 0.0000000000000000000, -11.99499999999998300 ) ) ;
#81 =( LENGTH_UNIT ( ) NAMED_UNIT ( * ) SI_UNIT ( $, .METRE. ) );
#82 = CIRCLE ( 'NONE', #147, 0.06250000000000000000 ) ;
#83 = EDGE_CURVE ( 'NONE', #91, #174, #74, .T. ) ;
#84 = ORIENTED_EDGE ( 'NONE', *, *, #59, .F. ) ;
#85 = UNCERTAINTY_MEASURE_WITH_UNIT (LENGTH_MEASURE( 1.000000000000000100E-005 ), #208, 'distance_accuracy_value', 'NONE');
#86 =( NAMED_UNIT ( * ) PLANE_ANGLE_UNIT ( ) SI_UNIT ( $, .RADIAN. ) );
#87 = DIRECTION ( 'NONE',  ( -0.0000000000000000000, -0.0000000000000000000, -1.000000000000000000 ) ) ;
#88 = APPLICATION_PROTOCOL_DEFINITION ( 'draft international standard', 'automotive_design', 1998, #108 ) ;
#89 = CIRCLE ( 'NONE', #158, 0.06250000000000000000 ) ;
#90 = PRESENTATION_LAYER_ASSIGNMENT (  '', '', ( #76 ) ) ;
#91 = VERTEX_POINT ( 'NONE', #150 ) ;
#92 = CYLINDRICAL_SURFACE ( 'NONE', #163, 0.06250000000000000000 ) ;
#93 = VECTOR ( 'NONE', #229, 39.37007874015748100 ) ;
#94 = CARTESIAN_POINT ( 'NONE',  ( 0.0000000000000000000, 0.0000000000000000000, 12.00000000000000200 ) ) ;
#95 = EDGE_CURVE ( 'NONE', #135, #149, #219, .T. ) ;
#96 = DIRECTION ( 'NONE',  ( 0.0000000000000000000, 0.0000000000000000000, 1.000000000000000000 ) ) ;
#97 = DIRECTION ( 'NONE',  ( 0.0000000000000000000, 0.0000000000000000000, 1.000000000000000000 ) ) ;
#98 = ORIENTED_EDGE ( 'NONE', *, *, #243, .F. ) ;
#99 = CARTESIAN_POINT ( 'NONE',  ( 0.0000000000000000000, 0.0000000000000000000, 12.00000000000000200 ) ) ;
#100 = CARTESIAN_POINT ( 'NONE',  ( 0.0000000000000000000, 0.0000000000000000000, 12.00000000000000200 ) ) ;
#101 =( NAMED_UNIT ( * ) PLANE_ANGLE_UNIT ( ) SI_UNIT ( $, .RADIAN. ) );
#102 = VERTEX_POINT ( 'NONE', #207 ) ;
#103 = MECHANICAL_DESIGN_GEOMETRIC_PRESENTATION_REPRESENTATION (  '', ( #76 ), #116 ) ;
#104 = ORIENTED_EDGE ( 'NONE', *, *, #83, .F. ) ;
#105 = ORIENTED_EDGE ( 'NONE', *, *, #16, .F. ) ;
#106 = CARTESIAN_POINT ( 'NONE',  ( 0.06250000000000000000, 7.654042494670956000E-018, 12.00000000000000200 ) ) ;
#107 = COLOUR_RGB ( '',0.7921568627450980000, 0.8196078431372548800, 0.9333333333333333500 ) ;
#108 = APPLICATION_CONTEXT ( 'automotive_design' ) ;
#109 = EDGE_CURVE ( 'NONE', #123, #91, #166, .T. ) ;
#110 = PRODUCT_DEFINITION_SHAPE ( 'NONE', 'NONE',  #20 ) ;
#111 = EDGE_LOOP ( 'NONE', ( #215, #193 ) ) ;
#112 = DIRECTION ( 'NONE',  ( 1.000000000000000000, 0.0000000000000000000, 0.0000000000000000000 ) ) ;
#113 = PLANE ( 'NONE',  #28 ) ;
#114 = LENGTH_MEASURE_WITH_UNIT ( LENGTH_MEASURE( 0.02539999999999999900 ), #81 );
#115 = CARTESIAN_POINT ( 'NONE',  ( 0.0000000000000000000, 0.0000000000000000000, -11.99499999999998300 ) ) ;
#116 =( GEOMETRIC_REPRESENTATION_CONTEXT ( 3 ) GLOBAL_UNCERTAINTY_ASSIGNED_CONTEXT ( ( #181 ) ) GLOBAL_UNIT_ASSIGNED_CONTEXT ( ( #197, #86, #216 ) ) REPRESENTATION_CONTEXT ( 'NONE', 'WORKASPACE' ) );
#117 = DIRECTION ( 'NONE',  ( 0.0000000000000000000, 0.0000000000000000000, -1.000000000000000000 ) ) ;
#118 = ORIENTED_EDGE ( 'NONE', *, *, #32, .T. ) ;
#119 = DIRECTION ( 'NONE',  ( -0.7071067811863391800, 8.659560562352382600E-017, 0.7071067811867557400 ) ) ;
#120 = DIRECTION ( 'NONE',  ( 0.0000000000000000000, 0.0000000000000000000, -1.000000000000000000 ) ) ;
#121 = AXIS2_PLACEMENT_3D ( 'NONE', #189, #63, #79 ) ;
#122 = ADVANCED_FACE ( 'NONE', ( #33 ), #227, .T. ) ;
#123 = VERTEX_POINT ( 'NONE', #38 ) ;
#124 = CARTESIAN_POINT ( 'NONE',  ( 0.0000000000000000000, 0.0000000000000000000, 0.0000000000000000000 ) ) ;
#125 = CONICAL_SURFACE ( 'NONE', #128, 0.06250000000000000000, 0.7853981633971537400 ) ;
#126 = SURFACE_SIDE_STYLE ('',( #218 ) ) ;
#127 = CYLINDRICAL_SURFACE ( 'NONE', #195, 0.06250000000000000000 ) ;
#128 = AXIS2_PLACEMENT_3D ( 'NONE', #115, #249, #31 ) ;
#129 = ADVANCED_BREP_SHAPE_REPRESENTATION ( 'RPSS02-24', ( #204, #9 ), #154 ) ;
#130 = ORIENTED_EDGE ( 'NONE', *, *, #6, .T. ) ;
#131 = DIRECTION ( 'NONE',  ( -0.0000000000000000000, -0.0000000000000000000, -1.000000000000000000 ) ) ;
#132 = VECTOR ( 'NONE', #41, 39.37007874015748100 ) ;
#133 = AXIS2_PLACEMENT_3D ( 'NONE', #99, #155, #42 ) ;
#134 = CARTESIAN_POINT ( 'NONE',  ( 0.05750000000001215300, 7.347880794884862600E-018, 12.00000000000000200 ) ) ;
#135 = VERTEX_POINT ( 'NONE', #60 ) ;
#136 = FACE_OUTER_BOUND ( 'NONE', #4, .T. ) ;
#137 = DIRECTION ( 'NONE',  ( -0.0000000000000000000, -0.0000000000000000000, -1.000000000000000000 ) ) ;
#138 = VECTOR ( 'NONE', #239, 39.37007874015748100 ) ;
#139 = DIRECTION ( 'NONE',  ( 1.000000000000000000, 0.0000000000000000000, 0.0000000000000000000 ) ) ;
#140 = VERTEX_POINT ( 'NONE', #185 ) ;
#141 = ADVANCED_FACE ( 'NONE', ( #180 ), #113, .T. ) ;
#142 = DIMENSIONAL_EXPONENTS ( 1.000000000000000000, 0.0000000000000000000, 0.0000000000000000000, 0.0000000000000000000, 0.0000000000000000000, 0.0000000000000000000, 0.0000000000000000000 ) ;
#143 = ORIENTED_EDGE ( 'NONE', *, *, #59, .T. ) ;
#144 = DIRECTION ( 'NONE',  ( -0.0000000000000000000, -0.0000000000000000000, 1.000000000000000000 ) ) ;
#145 = LINE ( 'NONE', #106, #43 ) ;
#146 = LINE ( 'NONE', #170, #132 ) ;
#147 = AXIS2_PLACEMENT_3D ( 'NONE', #231, #120, #190 ) ;
#148 = ORIENTED_EDGE ( 'NONE', *, *, #223, .T. ) ;
#149 = VERTEX_POINT ( 'NONE', #134 ) ;
#150 = CARTESIAN_POINT ( 'NONE',  ( -0.05749999999998592300, 7.347880794883257100E-018, -12.00000000000000200 ) ) ;
#151 = PLANE ( 'NONE',  #67 ) ;
#152 = SHAPE_DEFINITION_REPRESENTATION ( #110, #129 ) ;
#153 = FACE_OUTER_BOUND ( 'NONE', #78, .T. ) ;
#154 =( GEOMETRIC_REPRESENTATION_CONTEXT ( 3 ) GLOBAL_UNCERTAINTY_ASSIGNED_CONTEXT ( ( #228 ) ) GLOBAL_UNIT_ASSIGNED_CONTEXT ( ( #53, #177, #70 ) ) REPRESENTATION_CONTEXT ( 'NONE', 'WORKASPACE' ) );
#155 = DIRECTION ( 'NONE',  ( 0.0000000000000000000, 0.0000000000000000000, -1.000000000000000000 ) ) ;
#156 = ORIENTED_EDGE ( 'NONE', *, *, #109, .F. ) ;
#157 = APPLICATION_CONTEXT ( 'automotive_design' ) ;
#158 = AXIS2_PLACEMENT_3D ( 'NONE', #230, #117, #2 ) ;
#159 = FILL_AREA_STYLE ('',( #238 ) ) ;
#160 = ORIENTED_EDGE ( 'NONE', *, *, #209, .T. ) ;
#161 = CARTESIAN_POINT ( 'NONE',  ( 0.05750000000001215300, 7.041719095098769100E-018, 12.00000000000000200 ) ) ;
#162 =( LENGTH_UNIT ( ) NAMED_UNIT ( * ) SI_UNIT ( $, .METRE. ) );
#163 = AXIS2_PLACEMENT_3D ( 'NONE', #176, #87, #51 ) ;
#164 = EDGE_LOOP ( 'NONE', ( #12, #56, #143, #221 ) ) ;
#165 = PRESENTATION_STYLE_ASSIGNMENT (( #13 ) ) ;
#166 = CIRCLE ( 'NONE', #220, 0.05749999999998592300 ) ;
#167 = AXIS2_PLACEMENT_3D ( 'NONE', #77, #222, #112 ) ;
#168 = CARTESIAN_POINT ( 'NONE',  ( 0.0000000000000000000, 0.0000000000000000000, -12.00000000000000200 ) ) ;
#169 = EDGE_LOOP ( 'NONE', ( #69, #148, #242, #84 ) ) ;
#170 = CARTESIAN_POINT ( 'NONE',  ( -0.05750000000001215300, 0.0000000000000000000, 12.00000000000000200 ) ) ;
#171 = CONICAL_SURFACE ( 'NONE', #133, 0.05750000000001215300, 0.7853981633973723400 ) ;
#172 = DIMENSIONAL_EXPONENTS ( 1.000000000000000000, 0.0000000000000000000, 0.0000000000000000000, 0.0000000000000000000, 0.0000000000000000000, 0.0000000000000000000, 0.0000000000000000000 ) ;
#173 = STYLED_ITEM ( 'NONE', ( #165 ), #129 ) ;
#174 = VERTEX_POINT ( 'NONE', #248 ) ;
#175 = SURFACE_STYLE_USAGE ( .BOTH. , #50 ) ;
#176 = CARTESIAN_POINT ( 'NONE',  ( 0.0000000000000000000, 0.0000000000000000000, 12.00000000000000200 ) ) ;
#177 =( NAMED_UNIT ( * ) PLANE_ANGLE_UNIT ( ) SI_UNIT ( $, .RADIAN. ) );
#178 = CIRCLE ( 'NONE', #121, 0.05750000000001215300 ) ;
#179 = AXIS2_PLACEMENT_3D ( 'NONE', #80, #206, #191 ) ;
#180 = FACE_OUTER_BOUND ( 'NONE', #40, .T. ) ;
#181 = UNCERTAINTY_MEASURE_WITH_UNIT (LENGTH_MEASURE( 1.000000000000000100E-005 ), #197, 'distance_accuracy_value', 'NONE');
#182 = EDGE_CURVE ( 'NONE', #91, #123, #211, .T. ) ;
#183 = CARTESIAN_POINT ( 'NONE',  ( 0.0000000000000000000, 0.0000000000000000000, 12.00000000000000200 ) ) ;
#184 = VERTEX_POINT ( 'NONE', #18 ) ;
#185 = CARTESIAN_POINT ( 'NONE',  ( 0.06250000000000000000, 7.654042494670956000E-018, -11.99499999999998300 ) ) ;
#186 = DIRECTION ( 'NONE',  ( -0.0000000000000000000, -0.0000000000000000000, -1.000000000000000000 ) ) ;
#187 = PRESENTATION_LAYER_ASSIGNMENT (  '', '', ( #173 ) ) ;
#188 = LINE ( 'NONE', #21, #93 ) ;
#189 = CARTESIAN_POINT ( 'NONE',  ( 0.0000000000000000000, 0.0000000000000000000, 12.00000000000000200 ) ) ;
#190 = DIRECTION ( 'NONE',  ( 1.000000000000000000, 0.0000000000000000000, 0.0000000000000000000 ) ) ;
#191 = DIRECTION ( 'NONE',  ( 1.000000000000000000, 0.0000000000000000000, 0.0000000000000000000 ) ) ;
#192 = CARTESIAN_POINT ( 'NONE',  ( 0.06250000000000000000, 0.0000000000000000000, -11.99499999999998300 ) ) ;
#193 = ORIENTED_EDGE ( 'NONE', *, *, #182, .T. ) ;
#194 = ADVANCED_FACE ( 'NONE', ( #48 ), #151, .F. ) ;
#195 = AXIS2_PLACEMENT_3D ( 'NONE', #100, #137, #23 ) ;
#196 = CLOSED_SHELL ( 'NONE', ( #27, #210, #47, #235, #141, #194, #65, #122 ) ) ;
#197 =( CONVERSION_BASED_UNIT ( 'INCH', #57 ) LENGTH_UNIT ( ) NAMED_UNIT ( #7 ) );
#198 = EDGE_CURVE ( 'NONE', #140, #174, #8, .T. ) ;
#199 = MECHANICAL_DESIGN_GEOMETRIC_PRESENTATION_REPRESENTATION (  '', ( #173 ), #212 ) ;
#200 = ORIENTED_EDGE ( 'NONE', *, *, #209, .F. ) ;
#201 = DIRECTION ( 'NONE',  ( 1.000000000000000000, 0.0000000000000000000, 0.0000000000000000000 ) ) ;
#202 = CARTESIAN_POINT ( 'NONE',  ( 0.0000000000000000000, 0.0000000000000000000, 12.00000000000000200 ) ) ;
#203 = AXIS2_PLACEMENT_3D ( 'NONE', #183, #73, #201 ) ;
#204 = MANIFOLD_SOLID_BREP ( 'Chamfer1', #196 ) ;
#205 = PRESENTATION_STYLE_ASSIGNMENT (( #175 ) ) ;
#206 = DIRECTION ( 'NONE',  ( -0.0000000000000000000, -0.0000000000000000000, 1.000000000000000000 ) ) ;
#207 = CARTESIAN_POINT ( 'NONE',  ( -0.06250000000000000000, 0.0000000000000000000, 11.99500000000001200 ) ) ;
#208 =( CONVERSION_BASED_UNIT ( 'INCH', #114 ) LENGTH_UNIT ( ) NAMED_UNIT ( #142 ) );
#209 = EDGE_CURVE ( 'NONE', #123, #140, #66, .T. ) ;
#210 = ADVANCED_FACE ( 'NONE', ( #153 ), #125, .T. ) ;
#211 = CIRCLE ( 'NONE', #14, 0.05749999999998592300 ) ;
#212 =( GEOMETRIC_REPRESENTATION_CONTEXT ( 3 ) GLOBAL_UNCERTAINTY_ASSIGNED_CONTEXT ( ( #85 ) ) GLOBAL_UNIT_ASSIGNED_CONTEXT ( ( #208, #101, #232 ) ) REPRESENTATION_CONTEXT ( 'NONE', 'WORKASPACE' ) );
#213 = PRODUCT_DEFINITION_CONTEXT ( 'detailed design', #157, 'design' ) ;
#214 = VECTOR ( 'NONE', #11, 39.37007874015748900 ) ;
#215 = ORIENTED_EDGE ( 'NONE', *, *, #109, .T. ) ;
#216 =( NAMED_UNIT ( * ) SI_UNIT ( $, .STERADIAN. ) SOLID_ANGLE_UNIT ( ) );
#217 = DIRECTION ( 'NONE',  ( -0.0000000000000000000, -0.0000000000000000000, -1.000000000000000000 ) ) ;
#218 = SURFACE_STYLE_FILL_AREA ( #244 ) ;
#219 = CIRCLE ( 'NONE', #203, 0.05750000000001215300 ) ;
#220 = AXIS2_PLACEMENT_3D ( 'NONE', #247, #131, #17 ) ;
#221 = ORIENTED_EDGE ( 'NONE', *, *, #46, .F. ) ;
#222 = DIRECTION ( 'NONE',  ( -0.0000000000000000000, -0.0000000000000000000, 1.000000000000000000 ) ) ;
#223 = EDGE_CURVE ( 'NONE', #149, #184, #240, .T. ) ;
#224 = FACE_OUTER_BOUND ( 'NONE', #1, .T. ) ;
#225 = DIRECTION ( 'NONE',  ( 1.000000000000000000, 0.0000000000000000000, -0.0000000000000000000 ) ) ;
#226 = DIRECTION ( 'NONE',  ( 1.000000000000000000, 0.0000000000000000000, -0.0000000000000000000 ) ) ;
#227 = CONICAL_SURFACE ( 'NONE', #236, 0.05750000000001215300, 0.7853981633973723400 ) ;
#228 = UNCERTAINTY_MEASURE_WITH_UNIT (LENGTH_MEASURE( 1.000000000000000100E-005 ), #53, 'distance_accuracy_value', 'NONE');
#229 = DIRECTION ( 'NONE',  ( -0.0000000000000000000, -0.0000000000000000000, -1.000000000000000000 ) ) ;
#230 = CARTESIAN_POINT ( 'NONE',  ( 0.0000000000000000000, 0.0000000000000000000, 11.99500000000001200 ) ) ;
#231 = CARTESIAN_POINT ( 'NONE',  ( 0.0000000000000000000, 0.0000000000000000000, 11.99500000000001200 ) ) ;
#232 =( NAMED_UNIT ( * ) SI_UNIT ( $, .STERADIAN. ) SOLID_ANGLE_UNIT ( ) );
#233 = LENGTH_MEASURE_WITH_UNIT ( LENGTH_MEASURE( 0.02539999999999999900 ), #162 );
#234 = FACE_OUTER_BOUND ( 'NONE', #72, .T. ) ;
#235 = ADVANCED_FACE ( 'NONE', ( #136 ), #92, .T. ) ;
#236 = AXIS2_PLACEMENT_3D ( 'NONE', #94, #36, #58 ) ;
#237 = ORIENTED_EDGE ( 'NONE', *, *, #71, .F. ) ;
#238 = FILL_AREA_STYLE_COLOUR ( '', #107 ) ;
#239 = DIRECTION ( 'NONE',  ( 0.7071067811864938400, 8.659560562354277100E-017, -0.7071067811866013100 ) ) ;
#240 = LINE ( 'NONE', #161, #138 ) ;
#241 = FILL_AREA_STYLE_COLOUR ( '', #25 ) ;
#242 = ORIENTED_EDGE ( 'NONE', *, *, #32, .F. ) ;
#243 = EDGE_CURVE ( 'NONE', #184, #140, #145, .T. ) ;
#244 = FILL_AREA_STYLE ('',( #241 ) ) ;
#245 = ORIENTED_EDGE ( 'NONE', *, *, #243, .T. ) ;
#246 = ORIENTED_EDGE ( 'NONE', *, *, #83, .T. ) ;
#247 = CARTESIAN_POINT ( 'NONE',  ( 0.0000000000000000000, 0.0000000000000000000, -12.00000000000000200 ) ) ;
#248 = CARTESIAN_POINT ( 'NONE',  ( -0.06250000000000000000, 0.0000000000000000000, -11.99499999999998300 ) ) ;
#249 = DIRECTION ( 'NONE',  ( -0.0000000000000000000, -0.0000000000000000000, 1.000000000000000000 ) ) ;
ENDSEC;
END-ISO-10303-21;
