ISO-10303-21;
HEADER;
FILE_DESCRIPTION (( 'STEP AP214' ),
    '1' );
FILE_NAME ('RPSS02-3.step',
    '2017-08-09T17:40:33',
    ( '' ),
    ( '' ),
    'SwSTEP 2.0',
    'SolidWorks 2017',
    '' );
FILE_SCHEMA (( 'AUTOMOTIVE_DESIGN' ));
ENDSEC;

DATA;
#1 = ORIENTED_EDGE ( 'NONE', *, *, #91, .F. ) ;
#2 = DIRECTION ( 'NONE',  ( 1.000000000000000000, 0.0000000000000000000, 0.0000000000000000000 ) ) ;
#3 = DIRECTION ( 'NONE',  ( 1.000000000000000000, 0.0000000000000000000, 0.0000000000000000000 ) ) ;
#4 = EDGE_CURVE ( 'NONE', #220, #138, #150, .T. ) ;
#5 = CARTESIAN_POINT ( 'NONE',  ( 0.0000000000000000000, 0.0000000000000000000, 1.495000000000001400 ) ) ;
#6 = CARTESIAN_POINT ( 'NONE',  ( -0.06250000000000000000, 0.0000000000000000000, -1.494999999999997900 ) ) ;
#7 = CARTESIAN_POINT ( 'NONE',  ( 0.0000000000000000000, 0.0000000000000000000, -1.500000000000000200 ) ) ;
#8 = PRODUCT_DEFINITION ( 'UNKNOWN', '', #18, #174 ) ;
#9 = ORIENTED_EDGE ( 'NONE', *, *, #241, .T. ) ;
#10 = ADVANCED_BREP_SHAPE_REPRESENTATION ( 'RPSS02-3', ( #239, #244 ), #54 ) ;
#11 = AXIS2_PLACEMENT_3D ( 'NONE', #200, #166, #33 ) ;
#12 = DIRECTION ( 'NONE',  ( 0.0000000000000000000, 0.0000000000000000000, 1.000000000000000000 ) ) ;
#13 = EDGE_LOOP ( 'NONE', ( #242, #129, #113, #51 ) ) ;
#14 = FILL_AREA_STYLE_COLOUR ( '', #225 ) ;
#15 = EDGE_CURVE ( 'NONE', #220, #203, #152, .T. ) ;
#16 =( CONVERSION_BASED_UNIT ( 'INCH', #122 ) LENGTH_UNIT ( ) NAMED_UNIT ( #52 ) );
#17 = ORIENTED_EDGE ( 'NONE', *, *, #100, .T. ) ;
#18 = PRODUCT_DEFINITION_FORMATION_WITH_SPECIFIED_SOURCE ( 'ANY', '', #136, .NOT_KNOWN. ) ;
#19 = CYLINDRICAL_SURFACE ( 'NONE', #94, 0.06250000000000000000 ) ;
#20 = DIRECTION ( 'NONE',  ( -0.0000000000000000000, -0.0000000000000000000, 1.000000000000000000 ) ) ;
#21 = CARTESIAN_POINT ( 'NONE',  ( 0.0000000000000000000, 0.0000000000000000000, -1.500000000000000200 ) ) ;
#22 = DIRECTION ( 'NONE',  ( 1.000000000000000000, 0.0000000000000000000, 0.0000000000000000000 ) ) ;
#23 = AXIS2_PLACEMENT_3D ( 'NONE', #112, #243, #131 ) ;
#24 = DIRECTION ( 'NONE',  ( 1.000000000000000000, 0.0000000000000000000, 0.0000000000000000000 ) ) ;
#25 = VERTEX_POINT ( 'NONE', #159 ) ;
#26 = ADVANCED_FACE ( 'NONE', ( #238 ), #234, .T. ) ;
#27 = FACE_OUTER_BOUND ( 'NONE', #248, .T. ) ;
#28 = CIRCLE ( 'NONE', #213, 0.05750000000000122400 ) ;
#29 = PRODUCT_DEFINITION_SHAPE ( 'NONE', 'NONE',  #8 ) ;
#30 = EDGE_CURVE ( 'NONE', #25, #245, #39, .T. ) ;
#31 = COLOUR_RGB ( '',0.7921568627450980000, 0.8196078431372548800, 0.9333333333333333500 ) ;
#32 = ORIENTED_EDGE ( 'NONE', *, *, #141, .T. ) ;
#33 = DIRECTION ( 'NONE',  ( 1.000000000000000000, 0.0000000000000000000, 0.0000000000000000000 ) ) ;
#34 = DIRECTION ( 'NONE',  ( -0.0000000000000000000, -0.0000000000000000000, -1.000000000000000000 ) ) ;
#35 = FACE_OUTER_BOUND ( 'NONE', #47, .T. ) ;
#36 = PRODUCT_RELATED_PRODUCT_CATEGORY ( 'part', '', ( #136 ) ) ;
#37 = SURFACE_SIDE_STYLE ('',( #140 ) ) ;
#38 =( CONVERSION_BASED_UNIT ( 'INCH', #240 ) LENGTH_UNIT ( ) NAMED_UNIT ( #90 ) );
#39 = CIRCLE ( 'NONE', #137, 0.05750000000000122400 ) ;
#40 = ORIENTED_EDGE ( 'NONE', *, *, #4, .F. ) ;
#41 =( NAMED_UNIT ( * ) SI_UNIT ( $, .STERADIAN. ) SOLID_ANGLE_UNIT ( ) );
#42 = VECTOR ( 'NONE', #216, 39.37007874015748900 ) ;
#43 = DIRECTION ( 'NONE',  ( -0.0000000000000000000, -0.0000000000000000000, 1.000000000000000000 ) ) ;
#44 = EDGE_CURVE ( 'NONE', #203, #82, #194, .T. ) ;
#45 = DIRECTION ( 'NONE',  ( 0.0000000000000000000, 0.0000000000000000000, -1.000000000000000000 ) ) ;
#46 = CARTESIAN_POINT ( 'NONE',  ( 0.0000000000000000000, 0.0000000000000000000, 1.500000000000000200 ) ) ;
#47 = EDGE_LOOP ( 'NONE', ( #223, #9, #199, #184 ) ) ;
#48 = DIRECTION ( 'NONE',  ( 0.0000000000000000000, 0.0000000000000000000, -1.000000000000000000 ) ) ;
#49 = ADVANCED_FACE ( 'NONE', ( #92 ), #178, .F. ) ;
#50 = EDGE_CURVE ( 'NONE', #93, #101, #198, .T. ) ;
#51 = ORIENTED_EDGE ( 'NONE', *, *, #50, .F. ) ;
#52 = DIMENSIONAL_EXPONENTS ( 1.000000000000000000, 0.0000000000000000000, 0.0000000000000000000, 0.0000000000000000000, 0.0000000000000000000, 0.0000000000000000000, 0.0000000000000000000 ) ;
#53 = VECTOR ( 'NONE', #246, 39.37007874015748100 ) ;
#54 =( GEOMETRIC_REPRESENTATION_CONTEXT ( 3 ) GLOBAL_UNCERTAINTY_ASSIGNED_CONTEXT ( ( #217 ) ) GLOBAL_UNIT_ASSIGNED_CONTEXT ( ( #38, #173, #60 ) ) REPRESENTATION_CONTEXT ( 'NONE', 'WORKASPACE' ) );
#55 = CARTESIAN_POINT ( 'NONE',  ( 0.0000000000000000000, 0.0000000000000000000, 1.500000000000000200 ) ) ;
#56 = EDGE_LOOP ( 'NONE', ( #89, #215, #117, #1 ) ) ;
#57 = FACE_OUTER_BOUND ( 'NONE', #56, .T. ) ;
#58 =( LENGTH_UNIT ( ) NAMED_UNIT ( * ) SI_UNIT ( $, .METRE. ) );
#59 = UNCERTAINTY_MEASURE_WITH_UNIT (LENGTH_MEASURE( 1.000000000000000100E-005 ), #16, 'distance_accuracy_value', 'NONE');
#60 =( NAMED_UNIT ( * ) SI_UNIT ( $, .STERADIAN. ) SOLID_ANGLE_UNIT ( ) );
#61 = EDGE_CURVE ( 'NONE', #245, #93, #142, .T. ) ;
#62 = DIRECTION ( 'NONE',  ( 0.0000000000000000000, 0.0000000000000000000, 1.000000000000000000 ) ) ;
#63 = EDGE_LOOP ( 'NONE', ( #110, #40, #176, #211 ) ) ;
#64 = EDGE_CURVE ( 'NONE', #82, #203, #98, .T. ) ;
#65 = CARTESIAN_POINT ( 'NONE',  ( 0.06250000000000000000, 0.0000000000000000000, -1.494999999999997900 ) ) ;
#66 = LENGTH_MEASURE_WITH_UNIT ( LENGTH_MEASURE( 0.02539999999999999900 ), #58 );
#67 = DIRECTION ( 'NONE',  ( 0.0000000000000000000, 0.0000000000000000000, 1.000000000000000000 ) ) ;
#68 = DIRECTION ( 'NONE',  ( 1.000000000000000000, 0.0000000000000000000, 0.0000000000000000000 ) ) ;
#69 = AXIS2_PLACEMENT_3D ( 'NONE', #191, #12, #153 ) ;
#70 = DIRECTION ( 'NONE',  ( -1.000000000000000000, 0.0000000000000000000, 0.0000000000000000000 ) ) ;
#71 = ORIENTED_EDGE ( 'NONE', *, *, #64, .T. ) ;
#72 = EDGE_CURVE ( 'NONE', #138, #82, #188, .T. ) ;
#73 = CARTESIAN_POINT ( 'NONE',  ( 0.06250000000000000000, 7.654042494670956000E-018, -1.494999999999997900 ) ) ;
#74 = DIRECTION ( 'NONE',  ( -1.000000000000000000, 0.0000000000000000000, 0.0000000000000000000 ) ) ;
#75 = ORIENTED_EDGE ( 'NONE', *, *, #72, .T. ) ;
#76 = DIRECTION ( 'NONE',  ( -0.0000000000000000000, -0.0000000000000000000, -1.000000000000000000 ) ) ;
#77 = FACE_OUTER_BOUND ( 'NONE', #125, .T. ) ;
#78 =( NAMED_UNIT ( * ) PLANE_ANGLE_UNIT ( ) SI_UNIT ( $, .RADIAN. ) );
#79 = APPLICATION_PROTOCOL_DEFINITION ( 'draft international standard', 'automotive_design', 1998, #99 ) ;
#80 = VECTOR ( 'NONE', #145, 39.37007874015748900 ) ;
#81 = STYLED_ITEM ( 'NONE', ( #118 ), #239 ) ;
#82 = VERTEX_POINT ( 'NONE', #6 ) ;
#83 = PRODUCT_CONTEXT ( 'NONE', #99, 'mechanical' ) ;
#84 = CONICAL_SURFACE ( 'NONE', #249, 0.05750000000000122400, 0.7853981633974543900 ) ;
#85 = DIRECTION ( 'NONE',  ( -0.0000000000000000000, -0.0000000000000000000, -1.000000000000000000 ) ) ;
#86 = CIRCLE ( 'NONE', #222, 0.05749999999999794200 ) ;
#87 = EDGE_CURVE ( 'NONE', #245, #25, #28, .T. ) ;
#88 = CARTESIAN_POINT ( 'NONE',  ( 0.0000000000000000000, 0.0000000000000000000, -1.494999999999997900 ) ) ;
#89 = ORIENTED_EDGE ( 'NONE', *, *, #87, .F. ) ;
#90 = DIMENSIONAL_EXPONENTS ( 1.000000000000000000, 0.0000000000000000000, 0.0000000000000000000, 0.0000000000000000000, 0.0000000000000000000, 0.0000000000000000000, 0.0000000000000000000 ) ;
#91 = EDGE_CURVE ( 'NONE', #25, #101, #179, .T. ) ;
#92 = FACE_OUTER_BOUND ( 'NONE', #237, .T. ) ;
#93 = VERTEX_POINT ( 'NONE', #205 ) ;
#94 = AXIS2_PLACEMENT_3D ( 'NONE', #55, #34, #74 ) ;
#95 = CARTESIAN_POINT ( 'NONE',  ( -0.05749999999999794200, 7.347880794883993600E-018, -1.500000000000000200 ) ) ;
#96 = PLANE ( 'NONE',  #69 ) ;
#97 = DIRECTION ( 'NONE',  ( -1.000000000000000000, 0.0000000000000000000, 0.0000000000000000000 ) ) ;
#98 = CIRCLE ( 'NONE', #204, 0.06250000000000000000 ) ;
#99 = APPLICATION_CONTEXT ( 'automotive_design' ) ;
#100 = EDGE_CURVE ( 'NONE', #138, #220, #86, .T. ) ;
#101 = VERTEX_POINT ( 'NONE', #123 ) ;
#102 = APPLICATION_PROTOCOL_DEFINITION ( 'draft international standard', 'automotive_design', 1998, #214 ) ;
#103 = ORIENTED_EDGE ( 'NONE', *, *, #50, .T. ) ;
#104 = LINE ( 'NONE', #133, #53 ) ;
#105 = CARTESIAN_POINT ( 'NONE',  ( 0.05750000000000122400, 7.041719095097431700E-018, 1.500000000000000200 ) ) ;
#106 = DIRECTION ( 'NONE',  ( 1.000000000000000000, 0.0000000000000000000, 0.0000000000000000000 ) ) ;
#107 = CARTESIAN_POINT ( 'NONE',  ( 0.0000000000000000000, 0.0000000000000000000, 1.500000000000000200 ) ) ;
#108 = AXIS2_PLACEMENT_3D ( 'NONE', #224, #76, #97 ) ;
#109 = ADVANCED_FACE ( 'NONE', ( #57 ), #192, .T. ) ;
#110 = ORIENTED_EDGE ( 'NONE', *, *, #72, .F. ) ;
#111 = AXIS2_PLACEMENT_3D ( 'NONE', #232, #85, #2 ) ;
#112 = CARTESIAN_POINT ( 'NONE',  ( 0.0000000000000000000, 0.0000000000000000000, 1.495000000000001400 ) ) ;
#113 = ORIENTED_EDGE ( 'NONE', *, *, #91, .T. ) ;
#114 = CARTESIAN_POINT ( 'NONE',  ( 0.0000000000000000000, 0.0000000000000000000, 0.0000000000000000000 ) ) ;
#115 = SURFACE_SIDE_STYLE ('',( #229 ) ) ;
#116 = PRESENTATION_LAYER_ASSIGNMENT (  '', '', ( #81 ) ) ;
#117 = ORIENTED_EDGE ( 'NONE', *, *, #156, .F. ) ;
#118 = PRESENTATION_STYLE_ASSIGNMENT (( #170 ) ) ;
#119 = DIRECTION ( 'NONE',  ( 0.0000000000000000000, 0.0000000000000000000, 1.000000000000000000 ) ) ;
#120 = DIRECTION ( 'NONE',  ( 0.7071067811865516800, 8.659560562354984600E-017, -0.7071067811865431300 ) ) ;
#121 = AXIS2_PLACEMENT_3D ( 'NONE', #143, #20, #233 ) ;
#122 = LENGTH_MEASURE_WITH_UNIT ( LENGTH_MEASURE( 0.02539999999999999900 ), #139 );
#123 = CARTESIAN_POINT ( 'NONE',  ( -0.06250000000000000000, 0.0000000000000000000, 1.495000000000001400 ) ) ;
#124 = DIRECTION ( 'NONE',  ( -1.000000000000000000, 0.0000000000000000000, 0.0000000000000000000 ) ) ;
#125 = EDGE_LOOP ( 'NONE', ( #164, #103, #32, #71 ) ) ;
#126 = ADVANCED_FACE ( 'NONE', ( #128 ), #84, .T. ) ;
#127 = CONICAL_SURFACE ( 'NONE', #11, 0.06250000000000000000, 0.7853981633974269600 ) ;
#128 = FACE_OUTER_BOUND ( 'NONE', #13, .T. ) ;
#129 = ORIENTED_EDGE ( 'NONE', *, *, #30, .F. ) ;
#130 = MECHANICAL_DESIGN_GEOMETRIC_PRESENTATION_REPRESENTATION (  '', ( #81 ), #148 ) ;
#131 = DIRECTION ( 'NONE',  ( 1.000000000000000000, 0.0000000000000000000, 0.0000000000000000000 ) ) ;
#132 = FACE_OUTER_BOUND ( 'NONE', #63, .T. ) ;
#133 = CARTESIAN_POINT ( 'NONE',  ( 0.06250000000000000000, 7.654042494670956000E-018, 1.500000000000000200 ) ) ;
#134 =( LENGTH_UNIT ( ) NAMED_UNIT ( * ) SI_UNIT ( $, .METRE. ) );
#135 = VECTOR ( 'NONE', #120, 39.37007874015748900 ) ;
#136 = PRODUCT ( 'RPSS02-3', 'RPSS02-3', '', ( #83 ) ) ;
#137 = AXIS2_PLACEMENT_3D ( 'NONE', #235, #119, #3 ) ;
#138 = VERTEX_POINT ( 'NONE', #95 ) ;
#139 =( LENGTH_UNIT ( ) NAMED_UNIT ( * ) SI_UNIT ( $, .METRE. ) );
#140 = SURFACE_STYLE_FILL_AREA ( #154 ) ;
#141 = EDGE_CURVE ( 'NONE', #101, #82, #186, .T. ) ;
#142 = LINE ( 'NONE', #105, #135 ) ;
#143 = CARTESIAN_POINT ( 'NONE',  ( 0.0000000000000000000, 0.0000000000000000000, -1.494999999999997900 ) ) ;
#144 = DIRECTION ( 'NONE',  ( 0.0000000000000000000, 0.0000000000000000000, -1.000000000000000000 ) ) ;
#145 = DIRECTION ( 'NONE',  ( -0.7071067811865516800, 0.0000000000000000000, -0.7071067811865431300 ) ) ;
#146 = ORIENTED_EDGE ( 'NONE', *, *, #4, .T. ) ;
#147 = DIRECTION ( 'NONE',  ( -0.0000000000000000000, -0.0000000000000000000, -1.000000000000000000 ) ) ;
#148 =( GEOMETRIC_REPRESENTATION_CONTEXT ( 3 ) GLOBAL_UNCERTAINTY_ASSIGNED_CONTEXT ( ( #172 ) ) GLOBAL_UNIT_ASSIGNED_CONTEXT ( ( #193, #78, #212 ) ) REPRESENTATION_CONTEXT ( 'NONE', 'WORKASPACE' ) );
#149 = ADVANCED_FACE ( 'NONE', ( #132 ), #127, .T. ) ;
#150 = CIRCLE ( 'NONE', #111, 0.05749999999999794200 ) ;
#151 = AXIS2_PLACEMENT_3D ( 'NONE', #160, #43, #180 ) ;
#152 = LINE ( 'NONE', #65, #42 ) ;
#153 = DIRECTION ( 'NONE',  ( 1.000000000000000000, 0.0000000000000000000, -0.0000000000000000000 ) ) ;
#154 = FILL_AREA_STYLE ('',( #14 ) ) ;
#155 = ORIENTED_EDGE ( 'NONE', *, *, #87, .T. ) ;
#156 = EDGE_CURVE ( 'NONE', #101, #93, #177, .T. ) ;
#157 =( NAMED_UNIT ( * ) PLANE_ANGLE_UNIT ( ) SI_UNIT ( $, .RADIAN. ) );
#158 = ORIENTED_EDGE ( 'NONE', *, *, #44, .F. ) ;
#159 = CARTESIAN_POINT ( 'NONE',  ( -0.05750000000000122400, 0.0000000000000000000, 1.500000000000000200 ) ) ;
#160 = CARTESIAN_POINT ( 'NONE',  ( 0.0000000000000000000, 0.0000000000000000000, -1.494999999999997900 ) ) ;
#161 = DIRECTION ( 'NONE',  ( -0.7071067811865322500, 8.659560562354748000E-017, 0.7071067811865625600 ) ) ;
#162 = CARTESIAN_POINT ( 'NONE',  ( -0.05750000000000122400, 0.0000000000000000000, 1.500000000000000200 ) ) ;
#163 = SHAPE_DEFINITION_REPRESENTATION ( #29, #10 ) ;
#164 = ORIENTED_EDGE ( 'NONE', *, *, #241, .F. ) ;
#165 = DIMENSIONAL_EXPONENTS ( 1.000000000000000000, 0.0000000000000000000, 0.0000000000000000000, 0.0000000000000000000, 0.0000000000000000000, 0.0000000000000000000, 0.0000000000000000000 ) ;
#166 = DIRECTION ( 'NONE',  ( -0.0000000000000000000, -0.0000000000000000000, 1.000000000000000000 ) ) ;
#167 = STYLED_ITEM ( 'NONE', ( #181 ), #10 ) ;
#168 = EDGE_LOOP ( 'NONE', ( #190, #75, #158, #195 ) ) ;
#169 = CARTESIAN_POINT ( 'NONE',  ( 0.05749999999999794200, 0.0000000000000000000, -1.500000000000000200 ) ) ;
#170 = SURFACE_STYLE_USAGE ( .BOTH. , #37 ) ;
#171 = CYLINDRICAL_SURFACE ( 'NONE', #108, 0.06250000000000000000 ) ;
#172 = UNCERTAINTY_MEASURE_WITH_UNIT (LENGTH_MEASURE( 1.000000000000000100E-005 ), #193, 'distance_accuracy_value', 'NONE');
#173 =( NAMED_UNIT ( * ) PLANE_ANGLE_UNIT ( ) SI_UNIT ( $, .RADIAN. ) );
#174 = PRODUCT_DEFINITION_CONTEXT ( 'detailed design', #214, 'design' ) ;
#175 = AXIS2_PLACEMENT_3D ( 'NONE', #5, #144, #22 ) ;
#176 = ORIENTED_EDGE ( 'NONE', *, *, #15, .T. ) ;
#177 = CIRCLE ( 'NONE', #23, 0.06250000000000000000 ) ;
#178 = PLANE ( 'NONE',  #189 ) ;
#179 = LINE ( 'NONE', #162, #80 ) ;
#180 = DIRECTION ( 'NONE',  ( 1.000000000000000000, 0.0000000000000000000, 0.0000000000000000000 ) ) ;
#181 = PRESENTATION_STYLE_ASSIGNMENT (( #247 ) ) ;
#182 = DIRECTION ( 'NONE',  ( 0.0000000000000000000, 0.0000000000000000000, 1.000000000000000000 ) ) ;
#183 = DIRECTION ( 'NONE',  ( -0.0000000000000000000, -0.0000000000000000000, -1.000000000000000000 ) ) ;
#184 = ORIENTED_EDGE ( 'NONE', *, *, #141, .F. ) ;
#185 = PRESENTATION_LAYER_ASSIGNMENT (  '', '', ( #167 ) ) ;
#186 = LINE ( 'NONE', #219, #231 ) ;
#187 = ADVANCED_FACE ( 'NONE', ( #27 ), #96, .T. ) ;
#188 = LINE ( 'NONE', #202, #228 ) ;
#189 = AXIS2_PLACEMENT_3D ( 'NONE', #21, #67, #201 ) ;
#190 = ORIENTED_EDGE ( 'NONE', *, *, #100, .F. ) ;
#191 = CARTESIAN_POINT ( 'NONE',  ( 0.0000000000000000000, 0.0000000000000000000, 1.500000000000000200 ) ) ;
#192 = CONICAL_SURFACE ( 'NONE', #236, 0.05750000000000122400, 0.7853981633974543900 ) ;
#193 =( CONVERSION_BASED_UNIT ( 'INCH', #66 ) LENGTH_UNIT ( ) NAMED_UNIT ( #165 ) );
#194 = CIRCLE ( 'NONE', #151, 0.06250000000000000000 ) ;
#195 = ORIENTED_EDGE ( 'NONE', *, *, #15, .F. ) ;
#196 = DIRECTION ( 'NONE',  ( 1.000000000000000000, 0.0000000000000000000, 0.0000000000000000000 ) ) ;
#197 = MECHANICAL_DESIGN_GEOMETRIC_PRESENTATION_REPRESENTATION (  '', ( #167 ), #209 ) ;
#198 = CIRCLE ( 'NONE', #175, 0.06250000000000000000 ) ;
#199 = ORIENTED_EDGE ( 'NONE', *, *, #44, .T. ) ;
#200 = CARTESIAN_POINT ( 'NONE',  ( 0.0000000000000000000, 0.0000000000000000000, -1.494999999999997900 ) ) ;
#201 = DIRECTION ( 'NONE',  ( 1.000000000000000000, 0.0000000000000000000, -0.0000000000000000000 ) ) ;
#202 = CARTESIAN_POINT ( 'NONE',  ( -0.06250000000000000000, 7.654042494670957500E-018, -1.494999999999997900 ) ) ;
#203 = VERTEX_POINT ( 'NONE', #73 ) ;
#204 = AXIS2_PLACEMENT_3D ( 'NONE', #88, #218, #106 ) ;
#205 = CARTESIAN_POINT ( 'NONE',  ( 0.06250000000000000000, 7.654042494670956000E-018, 1.495000000000001400 ) ) ;
#206 = CARTESIAN_POINT ( 'NONE',  ( 0.0000000000000000000, 0.0000000000000000000, 1.500000000000000200 ) ) ;
#207 = ADVANCED_FACE ( 'NONE', ( #35 ), #19, .T. ) ;
#208 = ORIENTED_EDGE ( 'NONE', *, *, #30, .T. ) ;
#209 =( GEOMETRIC_REPRESENTATION_CONTEXT ( 3 ) GLOBAL_UNCERTAINTY_ASSIGNED_CONTEXT ( ( #59 ) ) GLOBAL_UNIT_ASSIGNED_CONTEXT ( ( #16, #157, #41 ) ) REPRESENTATION_CONTEXT ( 'NONE', 'WORKASPACE' ) );
#210 = CARTESIAN_POINT ( 'NONE',  ( 0.05750000000000122400, 7.347880794884193900E-018, 1.500000000000000200 ) ) ;
#211 = ORIENTED_EDGE ( 'NONE', *, *, #64, .F. ) ;
#212 =( NAMED_UNIT ( * ) SI_UNIT ( $, .STERADIAN. ) SOLID_ANGLE_UNIT ( ) );
#213 = AXIS2_PLACEMENT_3D ( 'NONE', #46, #182, #68 ) ;
#214 = APPLICATION_CONTEXT ( 'automotive_design' ) ;
#215 = ORIENTED_EDGE ( 'NONE', *, *, #61, .T. ) ;
#216 = DIRECTION ( 'NONE',  ( 0.7071067811865322500, 0.0000000000000000000, 0.7071067811865625600 ) ) ;
#217 = UNCERTAINTY_MEASURE_WITH_UNIT (LENGTH_MEASURE( 1.000000000000000100E-005 ), #38, 'distance_accuracy_value', 'NONE');
#218 = DIRECTION ( 'NONE',  ( -0.0000000000000000000, -0.0000000000000000000, 1.000000000000000000 ) ) ;
#219 = CARTESIAN_POINT ( 'NONE',  ( -0.06250000000000000000, 0.0000000000000000000, 1.500000000000000200 ) ) ;
#220 = VERTEX_POINT ( 'NONE', #169 ) ;
#221 = ADVANCED_FACE ( 'NONE', ( #77 ), #171, .T. ) ;
#222 = AXIS2_PLACEMENT_3D ( 'NONE', #7, #147, #24 ) ;
#223 = ORIENTED_EDGE ( 'NONE', *, *, #156, .T. ) ;
#224 = CARTESIAN_POINT ( 'NONE',  ( 0.0000000000000000000, 0.0000000000000000000, 1.500000000000000200 ) ) ;
#225 = COLOUR_RGB ( '',0.7921568627450980000, 0.8196078431372548800, 0.9333333333333333500 ) ;
#226 = FILL_AREA_STYLE_COLOUR ( '', #31 ) ;
#227 = FILL_AREA_STYLE ('',( #226 ) ) ;
#228 = VECTOR ( 'NONE', #161, 39.37007874015748900 ) ;
#229 = SURFACE_STYLE_FILL_AREA ( #227 ) ;
#230 = CLOSED_SHELL ( 'NONE', ( #109, #26, #207, #221, #187, #49, #149, #126 ) ) ;
#231 = VECTOR ( 'NONE', #183, 39.37007874015748100 ) ;
#232 = CARTESIAN_POINT ( 'NONE',  ( 0.0000000000000000000, 0.0000000000000000000, -1.500000000000000200 ) ) ;
#233 = DIRECTION ( 'NONE',  ( 1.000000000000000000, 0.0000000000000000000, 0.0000000000000000000 ) ) ;
#234 = CONICAL_SURFACE ( 'NONE', #121, 0.06250000000000000000, 0.7853981633974269600 ) ;
#235 = CARTESIAN_POINT ( 'NONE',  ( 0.0000000000000000000, 0.0000000000000000000, 1.500000000000000200 ) ) ;
#236 = AXIS2_PLACEMENT_3D ( 'NONE', #107, #45, #124 ) ;
#237 = EDGE_LOOP ( 'NONE', ( #146, #17 ) ) ;
#238 = FACE_OUTER_BOUND ( 'NONE', #168, .T. ) ;
#239 = MANIFOLD_SOLID_BREP ( 'Chamfer1', #230 ) ;
#240 = LENGTH_MEASURE_WITH_UNIT ( LENGTH_MEASURE( 0.02539999999999999900 ), #134 );
#241 = EDGE_CURVE ( 'NONE', #93, #203, #104, .T. ) ;
#242 = ORIENTED_EDGE ( 'NONE', *, *, #61, .F. ) ;
#243 = DIRECTION ( 'NONE',  ( 0.0000000000000000000, 0.0000000000000000000, -1.000000000000000000 ) ) ;
#244 = AXIS2_PLACEMENT_3D ( 'NONE', #114, #62, #196 ) ;
#245 = VERTEX_POINT ( 'NONE', #210 ) ;
#246 = DIRECTION ( 'NONE',  ( -0.0000000000000000000, -0.0000000000000000000, -1.000000000000000000 ) ) ;
#247 = SURFACE_STYLE_USAGE ( .BOTH. , #115 ) ;
#248 = EDGE_LOOP ( 'NONE', ( #208, #155 ) ) ;
#249 = AXIS2_PLACEMENT_3D ( 'NONE', #206, #48, #70 ) ;
ENDSEC;
END-ISO-10303-21;
