ISO-10303-21;
HEADER;
FILE_DESCRIPTION (( 'STEP AP214' ),
    '1' );
FILE_NAME ('RPSS02-36.step',
    '2017-08-09T17:41:38',
    ( '' ),
    ( '' ),
    'SwSTEP 2.0',
    'SolidWorks 2017',
    '' );
FILE_SCHEMA (( 'AUTOMOTIVE_DESIGN' ));
ENDSEC;

DATA;
#1 = EDGE_CURVE ( 'NONE', #3, #106, #57, .T. ) ;
#2 = DIRECTION ( 'NONE',  ( -0.0000000000000000000, -0.0000000000000000000, -1.000000000000000000 ) ) ;
#3 = VERTEX_POINT ( 'NONE', #231 ) ;
#4 = AXIS2_PLACEMENT_3D ( 'NONE', #144, #48, #49 ) ;
#5 = DIRECTION ( 'NONE',  ( -0.0000000000000000000, -0.0000000000000000000, -1.000000000000000000 ) ) ;
#6 = DIRECTION ( 'NONE',  ( -0.0000000000000000000, -0.0000000000000000000, -1.000000000000000000 ) ) ;
#7 = VECTOR ( 'NONE', #38, 39.37007874015748100 ) ;
#8 = DIRECTION ( 'NONE',  ( 0.7071067811864931700, 8.659560562354267300E-017, -0.7071067811866018600 ) ) ;
#9 = DIRECTION ( 'NONE',  ( -0.0000000000000000000, -0.0000000000000000000, 1.000000000000000000 ) ) ;
#10 = FILL_AREA_STYLE_COLOUR ( '', #182 ) ;
#11 =( CONVERSION_BASED_UNIT ( 'INCH', #110 ) LENGTH_UNIT ( ) NAMED_UNIT ( #137 ) );
#12 = VERTEX_POINT ( 'NONE', #74 ) ;
#13 = CONICAL_SURFACE ( 'NONE', #202, 0.05749999999999904500, 0.7853981633973714500 ) ;
#14 = ORIENTED_EDGE ( 'NONE', *, *, #118, .F. ) ;
#15 = EDGE_CURVE ( 'NONE', #171, #140, #206, .T. ) ;
#16 = APPLICATION_PROTOCOL_DEFINITION ( 'draft international standard', 'automotive_design', 1998, #33 ) ;
#17 = DIRECTION ( 'NONE',  ( 1.000000000000000000, 0.0000000000000000000, 0.0000000000000000000 ) ) ;
#18 = STYLED_ITEM ( 'NONE', ( #172 ), #228 ) ;
#19 = ORIENTED_EDGE ( 'NONE', *, *, #30, .T. ) ;
#20 = ADVANCED_FACE ( 'NONE', ( #108 ), #92, .T. ) ;
#21 = SURFACE_STYLE_FILL_AREA ( #219 ) ;
#22 = DIMENSIONAL_EXPONENTS ( 1.000000000000000000, 0.0000000000000000000, 0.0000000000000000000, 0.0000000000000000000, 0.0000000000000000000, 0.0000000000000000000, 0.0000000000000000000 ) ;
#23 = CARTESIAN_POINT ( 'NONE',  ( 0.0000000000000000000, 0.0000000000000000000, -17.99499999999998700 ) ) ;
#24 = DIRECTION ( 'NONE',  ( 0.0000000000000000000, 0.0000000000000000000, 1.000000000000000000 ) ) ;
#25 = ORIENTED_EDGE ( 'NONE', *, *, #146, .F. ) ;
#26 = CARTESIAN_POINT ( 'NONE',  ( 0.0000000000000000000, 0.0000000000000000000, 18.00000000000000000 ) ) ;
#27 = FACE_OUTER_BOUND ( 'NONE', #201, .T. ) ;
#28 = CARTESIAN_POINT ( 'NONE',  ( -0.05749999999999030200, 7.347880794883525200E-018, -18.00000000000000000 ) ) ;
#29 =( NAMED_UNIT ( * ) SI_UNIT ( $, .STERADIAN. ) SOLID_ANGLE_UNIT ( ) );
#30 = EDGE_CURVE ( 'NONE', #3, #171, #148, .T. ) ;
#31 = ORIENTED_EDGE ( 'NONE', *, *, #89, .F. ) ;
#32 = CYLINDRICAL_SURFACE ( 'NONE', #67, 0.06250000000000000000 ) ;
#33 = APPLICATION_CONTEXT ( 'automotive_design' ) ;
#34 = APPLICATION_CONTEXT ( 'automotive_design' ) ;
#35 = VERTEX_POINT ( 'NONE', #175 ) ;
#36 = LENGTH_MEASURE_WITH_UNIT ( LENGTH_MEASURE( 0.02539999999999999900 ), #207 );
#37 = FACE_OUTER_BOUND ( 'NONE', #161, .T. ) ;
#38 = DIRECTION ( 'NONE',  ( -0.0000000000000000000, -0.0000000000000000000, -1.000000000000000000 ) ) ;
#39 = EDGE_CURVE ( 'NONE', #140, #106, #197, .T. ) ;
#40 = ORIENTED_EDGE ( 'NONE', *, *, #75, .T. ) ;
#41 = ADVANCED_BREP_SHAPE_REPRESENTATION ( 'RPSS02-36', ( #228, #83 ), #189 ) ;
#42 = DIRECTION ( 'NONE',  ( 1.000000000000000000, 0.0000000000000000000, 0.0000000000000000000 ) ) ;
#43 = AXIS2_PLACEMENT_3D ( 'NONE', #64, #163, #199 ) ;
#44 = PRODUCT_DEFINITION_SHAPE ( 'NONE', 'NONE',  #69 ) ;
#45 = CARTESIAN_POINT ( 'NONE',  ( 0.06250000000000000000, 7.654042494670957500E-018, -17.99499999999998700 ) ) ;
#46 = CARTESIAN_POINT ( 'NONE',  ( 0.05749999999999904500, 7.041719095097163700E-018, 18.00000000000000000 ) ) ;
#47 = FACE_OUTER_BOUND ( 'NONE', #62, .T. ) ;
#48 = DIRECTION ( 'NONE',  ( 0.0000000000000000000, 0.0000000000000000000, 1.000000000000000000 ) ) ;
#49 = DIRECTION ( 'NONE',  ( 1.000000000000000000, 0.0000000000000000000, -0.0000000000000000000 ) ) ;
#50 = PRODUCT_RELATED_PRODUCT_CATEGORY ( 'part', '', ( #244 ) ) ;
#51 = ORIENTED_EDGE ( 'NONE', *, *, #107, .F. ) ;
#52 = LINE ( 'NONE', #78, #142 ) ;
#53 = EDGE_CURVE ( 'NONE', #35, #12, #248, .T. ) ;
#54 = ORIENTED_EDGE ( 'NONE', *, *, #15, .T. ) ;
#55 = FILL_AREA_STYLE ('',( #169 ) ) ;
#56 = AXIS2_PLACEMENT_3D ( 'NONE', #80, #218, #104 ) ;
#57 = LINE ( 'NONE', #230, #7 ) ;
#58 = DIMENSIONAL_EXPONENTS ( 1.000000000000000000, 0.0000000000000000000, 0.0000000000000000000, 0.0000000000000000000, 0.0000000000000000000, 0.0000000000000000000, 0.0000000000000000000 ) ;
#59 = DIRECTION ( 'NONE',  ( -1.000000000000000000, 0.0000000000000000000, 0.0000000000000000000 ) ) ;
#60 = ORIENTED_EDGE ( 'NONE', *, *, #65, .T. ) ;
#61 = PRODUCT_DEFINITION_FORMATION_WITH_SPECIFIED_SOURCE ( 'ANY', '', #244, .NOT_KNOWN. ) ;
#62 = EDGE_LOOP ( 'NONE', ( #121, #71 ) ) ;
#63 = DIRECTION ( 'NONE',  ( 0.0000000000000000000, 0.0000000000000000000, 1.000000000000000000 ) ) ;
#64 = CARTESIAN_POINT ( 'NONE',  ( 0.0000000000000000000, 0.0000000000000000000, -17.99499999999998700 ) ) ;
#65 = EDGE_CURVE ( 'NONE', #227, #193, #155, .T. ) ;
#66 = ORIENTED_EDGE ( 'NONE', *, *, #240, .F. ) ;
#67 = AXIS2_PLACEMENT_3D ( 'NONE', #26, #180, #196 ) ;
#68 = CONICAL_SURFACE ( 'NONE', #126, 0.06250000000000000000, 0.7853981633971528500 ) ;
#69 = PRODUCT_DEFINITION ( 'UNKNOWN', '', #61, #119 ) ;
#70 = SURFACE_STYLE_USAGE ( .BOTH. , #188 ) ;
#71 = ORIENTED_EDGE ( 'NONE', *, *, #118, .T. ) ;
#72 = VECTOR ( 'NONE', #123, 39.37007874015748100 ) ;
#73 = ADVANCED_FACE ( 'NONE', ( #47 ), #234, .T. ) ;
#74 = CARTESIAN_POINT ( 'NONE',  ( 0.05749999999999904500, 7.347880794884061400E-018, 18.00000000000000000 ) ) ;
#75 = EDGE_CURVE ( 'NONE', #193, #227, #243, .T. ) ;
#76 = DIRECTION ( 'NONE',  ( 0.0000000000000000000, 0.0000000000000000000, 1.000000000000000000 ) ) ;
#77 = EDGE_LOOP ( 'NONE', ( #157, #190, #220, #91 ) ) ;
#78 = CARTESIAN_POINT ( 'NONE',  ( -0.05749999999999904500, 0.0000000000000000000, 18.00000000000000000 ) ) ;
#79 = CIRCLE ( 'NONE', #81, 0.05749999999999904500 ) ;
#80 = CARTESIAN_POINT ( 'NONE',  ( 0.0000000000000000000, 0.0000000000000000000, -17.99499999999998700 ) ) ;
#81 = AXIS2_PLACEMENT_3D ( 'NONE', #181, #63, #198 ) ;
#82 = CARTESIAN_POINT ( 'NONE',  ( 0.06250000000000000000, 0.0000000000000000000, -17.99499999999998700 ) ) ;
#83 = AXIS2_PLACEMENT_3D ( 'NONE', #204, #133, #17 ) ;
#84 = UNCERTAINTY_MEASURE_WITH_UNIT (LENGTH_MEASURE( 1.000000000000000100E-005 ), #90, 'distance_accuracy_value', 'NONE');
#85 = ORIENTED_EDGE ( 'NONE', *, *, #39, .T. ) ;
#86 = CARTESIAN_POINT ( 'NONE',  ( 0.0000000000000000000, 0.0000000000000000000, 18.00000000000000000 ) ) ;
#87 = FACE_OUTER_BOUND ( 'NONE', #233, .T. ) ;
#88 =( LENGTH_UNIT ( ) NAMED_UNIT ( * ) SI_UNIT ( $, .METRE. ) );
#89 = EDGE_CURVE ( 'NONE', #35, #171, #52, .T. ) ;
#90 =( CONVERSION_BASED_UNIT ( 'INCH', #36 ) LENGTH_UNIT ( ) NAMED_UNIT ( #22 ) );
#91 = ORIENTED_EDGE ( 'NONE', *, *, #15, .F. ) ;
#92 = CONICAL_SURFACE ( 'NONE', #223, 0.05749999999999904500, 0.7853981633973714500 ) ;
#93 = AXIS2_PLACEMENT_3D ( 'NONE', #122, #6, #195 ) ;
#94 = ADVANCED_FACE ( 'NONE', ( #205 ), #186, .T. ) ;
#95 = CARTESIAN_POINT ( 'NONE',  ( -0.06250000000000000000, 0.0000000000000000000, 18.00000000000000000 ) ) ;
#96 = VECTOR ( 'NONE', #221, 39.37007874015748100 ) ;
#97 = ORIENTED_EDGE ( 'NONE', *, *, #146, .T. ) ;
#98 = DIRECTION ( 'NONE',  ( 0.0000000000000000000, 0.0000000000000000000, -1.000000000000000000 ) ) ;
#99 = DIRECTION ( 'NONE',  ( -0.0000000000000000000, -0.0000000000000000000, -1.000000000000000000 ) ) ;
#100 = PRESENTATION_STYLE_ASSIGNMENT (( #70 ) ) ;
#101 = DIRECTION ( 'NONE',  ( 0.0000000000000000000, 0.0000000000000000000, -1.000000000000000000 ) ) ;
#102 = VECTOR ( 'NONE', #2, 39.37007874015748100 ) ;
#103 = CARTESIAN_POINT ( 'NONE',  ( -0.06250000000000000000, 0.0000000000000000000, -17.99499999999998700 ) ) ;
#104 = DIRECTION ( 'NONE',  ( 1.000000000000000000, 0.0000000000000000000, 0.0000000000000000000 ) ) ;
#105 = SURFACE_SIDE_STYLE ('',( #21 ) ) ;
#106 = VERTEX_POINT ( 'NONE', #45 ) ;
#107 = EDGE_CURVE ( 'NONE', #171, #3, #191, .T. ) ;
#108 = FACE_OUTER_BOUND ( 'NONE', #115, .T. ) ;
#109 = AXIS2_PLACEMENT_3D ( 'NONE', #216, #101, #236 ) ;
#110 = LENGTH_MEASURE_WITH_UNIT ( LENGTH_MEASURE( 0.02539999999999999900 ), #127 );
#111 = ORIENTED_EDGE ( 'NONE', *, *, #1, .F. ) ;
#112 =( NAMED_UNIT ( * ) PLANE_ANGLE_UNIT ( ) SI_UNIT ( $, .RADIAN. ) );
#113 =( NAMED_UNIT ( * ) SI_UNIT ( $, .STERADIAN. ) SOLID_ANGLE_UNIT ( ) );
#114 = ORIENTED_EDGE ( 'NONE', *, *, #132, .F. ) ;
#115 = EDGE_LOOP ( 'NONE', ( #114, #151, #134, #215 ) ) ;
#116 = ADVANCED_FACE ( 'NONE', ( #87 ), #32, .T. ) ;
#117 = CARTESIAN_POINT ( 'NONE',  ( 0.0000000000000000000, 0.0000000000000000000, 18.00000000000000000 ) ) ;
#118 = EDGE_CURVE ( 'NONE', #12, #35, #79, .T. ) ;
#119 = PRODUCT_DEFINITION_CONTEXT ( 'detailed design', #34, 'design' ) ;
#120 = CARTESIAN_POINT ( 'NONE',  ( 0.0000000000000000000, 0.0000000000000000000, -18.00000000000000000 ) ) ;
#121 = ORIENTED_EDGE ( 'NONE', *, *, #53, .T. ) ;
#122 = CARTESIAN_POINT ( 'NONE',  ( 0.0000000000000000000, 0.0000000000000000000, 18.00000000000000000 ) ) ;
#123 = DIRECTION ( 'NONE',  ( -0.7071067811863386300, 8.659560562352375200E-017, 0.7071067811867564100 ) ) ;
#124 = PLANE ( 'NONE',  #4 ) ;
#125 = CIRCLE ( 'NONE', #56, 0.06250000000000000000 ) ;
#126 = AXIS2_PLACEMENT_3D ( 'NONE', #143, #9, #217 ) ;
#127 =( LENGTH_UNIT ( ) NAMED_UNIT ( * ) SI_UNIT ( $, .METRE. ) );
#128 =( GEOMETRIC_REPRESENTATION_CONTEXT ( 3 ) GLOBAL_UNCERTAINTY_ASSIGNED_CONTEXT ( ( #84 ) ) GLOBAL_UNIT_ASSIGNED_CONTEXT ( ( #90, #225, #113 ) ) REPRESENTATION_CONTEXT ( 'NONE', 'WORKASPACE' ) );
#129 = DIRECTION ( 'NONE',  ( -1.000000000000000000, 0.0000000000000000000, 0.0000000000000000000 ) ) ;
#130 = EDGE_LOOP ( 'NONE', ( #60, #40 ) ) ;
#131 = LINE ( 'NONE', #162, #72 ) ;
#132 = EDGE_CURVE ( 'NONE', #12, #3, #238, .T. ) ;
#133 = DIRECTION ( 'NONE',  ( 0.0000000000000000000, 0.0000000000000000000, 1.000000000000000000 ) ) ;
#134 = ORIENTED_EDGE ( 'NONE', *, *, #89, .T. ) ;
#135 = LINE ( 'NONE', #82, #96 ) ;
#136 = AXIS2_PLACEMENT_3D ( 'NONE', #177, #24, #160 ) ;
#137 = DIMENSIONAL_EXPONENTS ( 1.000000000000000000, 0.0000000000000000000, 0.0000000000000000000, 0.0000000000000000000, 0.0000000000000000000, 0.0000000000000000000, 0.0000000000000000000 ) ;
#138 = DIRECTION ( 'NONE',  ( 0.0000000000000000000, 0.0000000000000000000, -1.000000000000000000 ) ) ;
#139 = MECHANICAL_DESIGN_GEOMETRIC_PRESENTATION_REPRESENTATION (  '', ( #165 ), #128 ) ;
#140 = VERTEX_POINT ( 'NONE', #103 ) ;
#141 = DIRECTION ( 'NONE',  ( 1.000000000000000000, 0.0000000000000000000, 0.0000000000000000000 ) ) ;
#142 = VECTOR ( 'NONE', #179, 39.37007874015748100 ) ;
#143 = CARTESIAN_POINT ( 'NONE',  ( 0.0000000000000000000, 0.0000000000000000000, -17.99499999999998700 ) ) ;
#144 = CARTESIAN_POINT ( 'NONE',  ( 0.0000000000000000000, 0.0000000000000000000, -18.00000000000000000 ) ) ;
#145 =( NAMED_UNIT ( * ) PLANE_ANGLE_UNIT ( ) SI_UNIT ( $, .RADIAN. ) );
#146 = EDGE_CURVE ( 'NONE', #193, #140, #131, .T. ) ;
#147 = ORIENTED_EDGE ( 'NONE', *, *, #132, .T. ) ;
#148 = CIRCLE ( 'NONE', #209, 0.06250000000000000000 ) ;
#149 = AXIS2_PLACEMENT_3D ( 'NONE', #214, #99, #235 ) ;
#150 = FACE_OUTER_BOUND ( 'NONE', #241, .T. ) ;
#151 = ORIENTED_EDGE ( 'NONE', *, *, #53, .F. ) ;
#152 = PRESENTATION_LAYER_ASSIGNMENT (  '', '', ( #165 ) ) ;
#153 = PRODUCT_CONTEXT ( 'NONE', #33, 'mechanical' ) ;
#154 = LENGTH_MEASURE_WITH_UNIT ( LENGTH_MEASURE( 0.02539999999999999900 ), #88 );
#155 = CIRCLE ( 'NONE', #174, 0.05749999999999030200 ) ;
#156 = ADVANCED_FACE ( 'NONE', ( #27 ), #68, .T. ) ;
#157 = ORIENTED_EDGE ( 'NONE', *, *, #107, .T. ) ;
#158 = EDGE_CURVE ( 'NONE', #106, #140, #125, .T. ) ;
#159 = DIRECTION ( 'NONE',  ( -0.0000000000000000000, -0.0000000000000000000, 1.000000000000000000 ) ) ;
#160 = DIRECTION ( 'NONE',  ( 1.000000000000000000, 0.0000000000000000000, -0.0000000000000000000 ) ) ;
#161 = EDGE_LOOP ( 'NONE', ( #167, #97, #184, #66 ) ) ;
#162 = CARTESIAN_POINT ( 'NONE',  ( -0.06250000000000000000, 7.654042494670957500E-018, -17.99499999999998700 ) ) ;
#163 = DIRECTION ( 'NONE',  ( -0.0000000000000000000, -0.0000000000000000000, 1.000000000000000000 ) ) ;
#164 = SHAPE_DEFINITION_REPRESENTATION ( #44, #41 ) ;
#165 = STYLED_ITEM ( 'NONE', ( #100 ), #41 ) ;
#166 = SURFACE_STYLE_FILL_AREA ( #55 ) ;
#167 = ORIENTED_EDGE ( 'NONE', *, *, #75, .F. ) ;
#168 = CONICAL_SURFACE ( 'NONE', #43, 0.06250000000000000000, 0.7853981633971528500 ) ;
#169 = FILL_AREA_STYLE_COLOUR ( '', #176 ) ;
#170 = APPLICATION_PROTOCOL_DEFINITION ( 'draft international standard', 'automotive_design', 1998, #34 ) ;
#171 = VERTEX_POINT ( 'NONE', #237 ) ;
#172 = PRESENTATION_STYLE_ASSIGNMENT (( #239 ) ) ;
#173 = ADVANCED_FACE ( 'NONE', ( #37 ), #168, .T. ) ;
#174 = AXIS2_PLACEMENT_3D ( 'NONE', #120, #5, #141 ) ;
#175 = CARTESIAN_POINT ( 'NONE',  ( -0.05749999999999904500, 0.0000000000000000000, 18.00000000000000000 ) ) ;
#176 = COLOUR_RGB ( '',0.7921568627450980000, 0.8196078431372548800, 0.9333333333333333500 ) ;
#177 = CARTESIAN_POINT ( 'NONE',  ( 0.0000000000000000000, 0.0000000000000000000, 18.00000000000000000 ) ) ;
#178 = ORIENTED_EDGE ( 'NONE', *, *, #39, .F. ) ;
#179 = DIRECTION ( 'NONE',  ( -0.7071067811864931700, 0.0000000000000000000, -0.7071067811866018600 ) ) ;
#180 = DIRECTION ( 'NONE',  ( -0.0000000000000000000, -0.0000000000000000000, -1.000000000000000000 ) ) ;
#181 = CARTESIAN_POINT ( 'NONE',  ( 0.0000000000000000000, 0.0000000000000000000, 18.00000000000000000 ) ) ;
#182 = COLOUR_RGB ( '',0.7921568627450980000, 0.8196078431372548800, 0.9333333333333333500 ) ;
#183 = CARTESIAN_POINT ( 'NONE',  ( 0.05749999999999030200, 0.0000000000000000000, -18.00000000000000000 ) ) ;
#184 = ORIENTED_EDGE ( 'NONE', *, *, #158, .F. ) ;
#185 = DIRECTION ( 'NONE',  ( 0.0000000000000000000, 0.0000000000000000000, -1.000000000000000000 ) ) ;
#186 = CYLINDRICAL_SURFACE ( 'NONE', #93, 0.06250000000000000000 ) ;
#187 = AXIS2_PLACEMENT_3D ( 'NONE', #194, #76, #213 ) ;
#188 = SURFACE_SIDE_STYLE ('',( #166 ) ) ;
#189 =( GEOMETRIC_REPRESENTATION_CONTEXT ( 3 ) GLOBAL_UNCERTAINTY_ASSIGNED_CONTEXT ( ( #247 ) ) GLOBAL_UNIT_ASSIGNED_CONTEXT ( ( #224, #112, #245 ) ) REPRESENTATION_CONTEXT ( 'NONE', 'WORKASPACE' ) );
#190 = ORIENTED_EDGE ( 'NONE', *, *, #1, .T. ) ;
#191 = CIRCLE ( 'NONE', #109, 0.06250000000000000000 ) ;
#192 = ADVANCED_FACE ( 'NONE', ( #222 ), #124, .F. ) ;
#193 = VERTEX_POINT ( 'NONE', #28 ) ;
#194 = CARTESIAN_POINT ( 'NONE',  ( 0.0000000000000000000, 0.0000000000000000000, 18.00000000000000000 ) ) ;
#195 = DIRECTION ( 'NONE',  ( -1.000000000000000000, 0.0000000000000000000, 0.0000000000000000000 ) ) ;
#196 = DIRECTION ( 'NONE',  ( -1.000000000000000000, 0.0000000000000000000, 0.0000000000000000000 ) ) ;
#197 = CIRCLE ( 'NONE', #200, 0.06250000000000000000 ) ;
#198 = DIRECTION ( 'NONE',  ( 1.000000000000000000, 0.0000000000000000000, 0.0000000000000000000 ) ) ;
#199 = DIRECTION ( 'NONE',  ( 1.000000000000000000, 0.0000000000000000000, 0.0000000000000000000 ) ) ;
#200 = AXIS2_PLACEMENT_3D ( 'NONE', #23, #159, #42 ) ;
#201 = EDGE_LOOP ( 'NONE', ( #25, #208, #246, #178 ) ) ;
#202 = AXIS2_PLACEMENT_3D ( 'NONE', #86, #185, #129 ) ;
#203 = UNCERTAINTY_MEASURE_WITH_UNIT (LENGTH_MEASURE( 1.000000000000000100E-005 ), #11, 'distance_accuracy_value', 'NONE');
#204 = CARTESIAN_POINT ( 'NONE',  ( 0.0000000000000000000, 0.0000000000000000000, 0.0000000000000000000 ) ) ;
#205 = FACE_OUTER_BOUND ( 'NONE', #77, .T. ) ;
#206 = LINE ( 'NONE', #95, #102 ) ;
#207 =( LENGTH_UNIT ( ) NAMED_UNIT ( * ) SI_UNIT ( $, .METRE. ) );
#208 = ORIENTED_EDGE ( 'NONE', *, *, #65, .F. ) ;
#209 = AXIS2_PLACEMENT_3D ( 'NONE', #211, #98, #232 ) ;
#210 = CLOSED_SHELL ( 'NONE', ( #249, #173, #94, #116, #73, #192, #156, #20 ) ) ;
#211 = CARTESIAN_POINT ( 'NONE',  ( 0.0000000000000000000, 0.0000000000000000000, 17.99499999999999700 ) ) ;
#212 =( GEOMETRIC_REPRESENTATION_CONTEXT ( 3 ) GLOBAL_UNCERTAINTY_ASSIGNED_CONTEXT ( ( #203 ) ) GLOBAL_UNIT_ASSIGNED_CONTEXT ( ( #11, #145, #29 ) ) REPRESENTATION_CONTEXT ( 'NONE', 'WORKASPACE' ) );
#213 = DIRECTION ( 'NONE',  ( 1.000000000000000000, 0.0000000000000000000, 0.0000000000000000000 ) ) ;
#214 = CARTESIAN_POINT ( 'NONE',  ( 0.0000000000000000000, 0.0000000000000000000, -18.00000000000000000 ) ) ;
#215 = ORIENTED_EDGE ( 'NONE', *, *, #30, .F. ) ;
#216 = CARTESIAN_POINT ( 'NONE',  ( 0.0000000000000000000, 0.0000000000000000000, 17.99499999999999700 ) ) ;
#217 = DIRECTION ( 'NONE',  ( 1.000000000000000000, 0.0000000000000000000, 0.0000000000000000000 ) ) ;
#218 = DIRECTION ( 'NONE',  ( -0.0000000000000000000, -0.0000000000000000000, 1.000000000000000000 ) ) ;
#219 = FILL_AREA_STYLE ('',( #10 ) ) ;
#220 = ORIENTED_EDGE ( 'NONE', *, *, #158, .T. ) ;
#221 = DIRECTION ( 'NONE',  ( 0.7071067811863386300, 0.0000000000000000000, 0.7071067811867564100 ) ) ;
#222 = FACE_OUTER_BOUND ( 'NONE', #130, .T. ) ;
#223 = AXIS2_PLACEMENT_3D ( 'NONE', #117, #138, #59 ) ;
#224 =( CONVERSION_BASED_UNIT ( 'INCH', #154 ) LENGTH_UNIT ( ) NAMED_UNIT ( #58 ) );
#225 =( NAMED_UNIT ( * ) PLANE_ANGLE_UNIT ( ) SI_UNIT ( $, .RADIAN. ) );
#226 = MECHANICAL_DESIGN_GEOMETRIC_PRESENTATION_REPRESENTATION (  '', ( #18 ), #212 ) ;
#227 = VERTEX_POINT ( 'NONE', #183 ) ;
#228 = MANIFOLD_SOLID_BREP ( 'Chamfer1', #210 ) ;
#229 = VECTOR ( 'NONE', #8, 39.37007874015748100 ) ;
#230 = CARTESIAN_POINT ( 'NONE',  ( 0.06250000000000000000, 7.654042494670957500E-018, 18.00000000000000000 ) ) ;
#231 = CARTESIAN_POINT ( 'NONE',  ( 0.06250000000000000000, 7.654042494670957500E-018, 17.99499999999999700 ) ) ;
#232 = DIRECTION ( 'NONE',  ( 1.000000000000000000, 0.0000000000000000000, 0.0000000000000000000 ) ) ;
#233 = EDGE_LOOP ( 'NONE', ( #111, #19, #54, #85 ) ) ;
#234 = PLANE ( 'NONE',  #136 ) ;
#235 = DIRECTION ( 'NONE',  ( 1.000000000000000000, 0.0000000000000000000, 0.0000000000000000000 ) ) ;
#236 = DIRECTION ( 'NONE',  ( 1.000000000000000000, 0.0000000000000000000, 0.0000000000000000000 ) ) ;
#237 = CARTESIAN_POINT ( 'NONE',  ( -0.06250000000000000000, 0.0000000000000000000, 17.99499999999999700 ) ) ;
#238 = LINE ( 'NONE', #46, #229 ) ;
#239 = SURFACE_STYLE_USAGE ( .BOTH. , #105 ) ;
#240 = EDGE_CURVE ( 'NONE', #227, #106, #135, .T. ) ;
#241 = EDGE_LOOP ( 'NONE', ( #14, #147, #51, #31 ) ) ;
#242 = PRESENTATION_LAYER_ASSIGNMENT (  '', '', ( #18 ) ) ;
#243 = CIRCLE ( 'NONE', #149, 0.05749999999999030200 ) ;
#244 = PRODUCT ( 'RPSS02-36', 'RPSS02-36', '', ( #153 ) ) ;
#245 =( NAMED_UNIT ( * ) SI_UNIT ( $, .STERADIAN. ) SOLID_ANGLE_UNIT ( ) );
#246 = ORIENTED_EDGE ( 'NONE', *, *, #240, .T. ) ;
#247 = UNCERTAINTY_MEASURE_WITH_UNIT (LENGTH_MEASURE( 1.000000000000000100E-005 ), #224, 'distance_accuracy_value', 'NONE');
#248 = CIRCLE ( 'NONE', #187, 0.05749999999999904500 ) ;
#249 = ADVANCED_FACE ( 'NONE', ( #150 ), #13, .T. ) ;
ENDSEC;
END-ISO-10303-21;
