ISO-10303-21;
HEADER;
FILE_DESCRIPTION (( 'STEP AP214' ),
    '1' );
FILE_NAME ('RPSS02-6.step',
    '2017-08-09T17:40:49',
    ( '' ),
    ( '' ),
    'SwSTEP 2.0',
    'SolidWorks 2017',
    '' );
FILE_SCHEMA (( 'AUTOMOTIVE_DESIGN' ));
ENDSEC;

DATA;
#1 = ORIENTED_EDGE ( 'NONE', *, *, #226, .F. ) ;
#2 = UNCERTAINTY_MEASURE_WITH_UNIT (LENGTH_MEASURE( 1.000000000000000100E-005 ), #44, 'distance_accuracy_value', 'NONE');
#3 = FILL_AREA_STYLE ('',( #114 ) ) ;
#4 = AXIS2_PLACEMENT_3D ( 'NONE', #29, #161, #49 ) ;
#5 = DIRECTION ( 'NONE',  ( -0.0000000000000000000, -0.0000000000000000000, 1.000000000000000000 ) ) ;
#6 = DIRECTION ( 'NONE',  ( 0.0000000000000000000, 0.0000000000000000000, 1.000000000000000000 ) ) ;
#7 = DIRECTION ( 'NONE',  ( -1.000000000000000000, 0.0000000000000000000, 0.0000000000000000000 ) ) ;
#8 = CARTESIAN_POINT ( 'NONE',  ( -0.06250000000000000000, 0.0000000000000000000, 2.995000000000004100 ) ) ;
#9 = AXIS2_PLACEMENT_3D ( 'NONE', #73, #153, #205 ) ;
#10 = DIRECTION ( 'NONE',  ( 0.7071067811865322500, 0.0000000000000000000, 0.7071067811865625600 ) ) ;
#11 = VECTOR ( 'NONE', #124, 39.37007874015748100 ) ;
#12 =( NAMED_UNIT ( * ) SI_UNIT ( $, .STERADIAN. ) SOLID_ANGLE_UNIT ( ) );
#13 = ADVANCED_FACE ( 'NONE', ( #19 ), #59, .T. ) ;
#14 = COLOUR_RGB ( '',0.7921568627450980000, 0.8196078431372548800, 0.9333333333333333500 ) ;
#15 = ORIENTED_EDGE ( 'NONE', *, *, #213, .F. ) ;
#16 = CYLINDRICAL_SURFACE ( 'NONE', #45, 0.06250000000000000000 ) ;
#17 =( GEOMETRIC_REPRESENTATION_CONTEXT ( 3 ) GLOBAL_UNCERTAINTY_ASSIGNED_CONTEXT ( ( #215 ) ) GLOBAL_UNIT_ASSIGNED_CONTEXT ( ( #244, #127, #12 ) ) REPRESENTATION_CONTEXT ( 'NONE', 'WORKASPACE' ) );
#18 = LINE ( 'NONE', #74, #223 ) ;
#19 = FACE_OUTER_BOUND ( 'NONE', #25, .T. ) ;
#20 = STYLED_ITEM ( 'NONE', ( #158 ), #48 ) ;
#21 = FACE_OUTER_BOUND ( 'NONE', #186, .T. ) ;
#22 = SURFACE_STYLE_USAGE ( .BOTH. , #138 ) ;
#23 = ORIENTED_EDGE ( 'NONE', *, *, #213, .T. ) ;
#24 = DIRECTION ( 'NONE',  ( 0.0000000000000000000, 0.0000000000000000000, -1.000000000000000000 ) ) ;
#25 = EDGE_LOOP ( 'NONE', ( #233, #23, #1, #175 ) ) ;
#26 = CARTESIAN_POINT ( 'NONE',  ( -0.05750000000000395100, 0.0000000000000000000, 3.000000000000000400 ) ) ;
#27 = CARTESIAN_POINT ( 'NONE',  ( 0.05750000000000395100, 7.347880794884361800E-018, 3.000000000000000400 ) ) ;
#28 = DIRECTION ( 'NONE',  ( 0.0000000000000000000, 0.0000000000000000000, -1.000000000000000000 ) ) ;
#29 = CARTESIAN_POINT ( 'NONE',  ( 0.0000000000000000000, 0.0000000000000000000, 3.000000000000000400 ) ) ;
#30 = CIRCLE ( 'NONE', #220, 0.06250000000000000000 ) ;
#31 = CARTESIAN_POINT ( 'NONE',  ( 0.0000000000000000000, 0.0000000000000000000, -2.994999999999995200 ) ) ;
#32 = ORIENTED_EDGE ( 'NONE', *, *, #130, .T. ) ;
#33 = UNCERTAINTY_MEASURE_WITH_UNIT (LENGTH_MEASURE( 1.000000000000000100E-005 ), #103, 'distance_accuracy_value', 'NONE');
#34 = APPLICATION_PROTOCOL_DEFINITION ( 'draft international standard', 'automotive_design', 1998, #52 ) ;
#35 = AXIS2_PLACEMENT_3D ( 'NONE', #31, #162, #51 ) ;
#36 = DIRECTION ( 'NONE',  ( 1.000000000000000000, 0.0000000000000000000, 0.0000000000000000000 ) ) ;
#37 = ADVANCED_FACE ( 'NONE', ( #118 ), #65, .T. ) ;
#38 = CIRCLE ( 'NONE', #137, 0.05750000000000395100 ) ;
#39 = AXIS2_PLACEMENT_3D ( 'NONE', #43, #116, #93 ) ;
#40 = VERTEX_POINT ( 'NONE', #237 ) ;
#41 = LINE ( 'NONE', #26, #131 ) ;
#42 = CLOSED_SHELL ( 'NONE', ( #195, #13, #37, #212, #168, #129, #86, #105 ) ) ;
#43 = CARTESIAN_POINT ( 'NONE',  ( 0.0000000000000000000, 0.0000000000000000000, -2.994999999999995200 ) ) ;
#44 =( CONVERSION_BASED_UNIT ( 'INCH', #96 ) LENGTH_UNIT ( ) NAMED_UNIT ( #247 ) );
#45 = AXIS2_PLACEMENT_3D ( 'NONE', #81, #122, #146 ) ;
#46 = DIRECTION ( 'NONE',  ( -1.000000000000000000, 0.0000000000000000000, 0.0000000000000000000 ) ) ;
#47 = DIRECTION ( 'NONE',  ( -0.0000000000000000000, -0.0000000000000000000, -1.000000000000000000 ) ) ;
#48 = MANIFOLD_SOLID_BREP ( 'Chamfer1', #42 ) ;
#49 = DIRECTION ( 'NONE',  ( 1.000000000000000000, 0.0000000000000000000, 0.0000000000000000000 ) ) ;
#50 = AXIS2_PLACEMENT_3D ( 'NONE', #179, #57, #177 ) ;
#51 = DIRECTION ( 'NONE',  ( 1.000000000000000000, 0.0000000000000000000, 0.0000000000000000000 ) ) ;
#52 = APPLICATION_CONTEXT ( 'automotive_design' ) ;
#53 = ORIENTED_EDGE ( 'NONE', *, *, #171, .T. ) ;
#54 = APPLICATION_CONTEXT ( 'automotive_design' ) ;
#55 = LENGTH_MEASURE_WITH_UNIT ( LENGTH_MEASURE( 0.02539999999999999900 ), #230 );
#56 = PRESENTATION_LAYER_ASSIGNMENT (  '', '', ( #20 ) ) ;
#57 = DIRECTION ( 'NONE',  ( -0.0000000000000000000, -0.0000000000000000000, -1.000000000000000000 ) ) ;
#58 =( NAMED_UNIT ( * ) SI_UNIT ( $, .STERADIAN. ) SOLID_ANGLE_UNIT ( ) );
#59 = CONICAL_SURFACE ( 'NONE', #9, 0.06250000000000000000, 0.7853981633974269600 ) ;
#60 = DIRECTION ( 'NONE',  ( 0.0000000000000000000, 0.0000000000000000000, 1.000000000000000000 ) ) ;
#61 = CARTESIAN_POINT ( 'NONE',  ( 0.06250000000000000000, 0.0000000000000000000, -2.994999999999995200 ) ) ;
#62 = CONICAL_SURFACE ( 'NONE', #245, 0.05750000000000395100, 0.7853981633974269600 ) ;
#63 = FILL_AREA_STYLE ('',( #191 ) ) ;
#64 = STYLED_ITEM ( 'NONE', ( #200 ), #164 ) ;
#65 = CYLINDRICAL_SURFACE ( 'NONE', #50, 0.06250000000000000000 ) ;
#66 = DIMENSIONAL_EXPONENTS ( 1.000000000000000000, 0.0000000000000000000, 0.0000000000000000000, 0.0000000000000000000, 0.0000000000000000000, 0.0000000000000000000, 0.0000000000000000000 ) ;
#67 = EDGE_LOOP ( 'NONE', ( #53, #106, #115, #197 ) ) ;
#68 = CIRCLE ( 'NONE', #35, 0.06250000000000000000 ) ;
#69 = MECHANICAL_DESIGN_GEOMETRIC_PRESENTATION_REPRESENTATION (  '', ( #20 ), #83 ) ;
#70 = EDGE_LOOP ( 'NONE', ( #229, #204 ) ) ;
#71 = EDGE_CURVE ( 'NONE', #210, #198, #18, .T. ) ;
#72 = FACE_OUTER_BOUND ( 'NONE', #70, .T. ) ;
#73 = CARTESIAN_POINT ( 'NONE',  ( 0.0000000000000000000, 0.0000000000000000000, -2.994999999999995200 ) ) ;
#74 = CARTESIAN_POINT ( 'NONE',  ( -0.06250000000000000000, 0.0000000000000000000, 3.000000000000000400 ) ) ;
#75 = PRESENTATION_LAYER_ASSIGNMENT (  '', '', ( #64 ) ) ;
#76 = DIRECTION ( 'NONE',  ( 0.0000000000000000000, 0.0000000000000000000, -1.000000000000000000 ) ) ;
#77 = ORIENTED_EDGE ( 'NONE', *, *, #188, .T. ) ;
#78 = PLANE ( 'NONE',  #181 ) ;
#79 = DIRECTION ( 'NONE',  ( -0.0000000000000000000, -0.0000000000000000000, -1.000000000000000000 ) ) ;
#80 = CARTESIAN_POINT ( 'NONE',  ( -0.05749999999999521500, 7.347880794883825600E-018, -3.000000000000000400 ) ) ;
#81 = CARTESIAN_POINT ( 'NONE',  ( 0.0000000000000000000, 0.0000000000000000000, 3.000000000000000400 ) ) ;
#82 = FACE_OUTER_BOUND ( 'NONE', #194, .T. ) ;
#83 =( GEOMETRIC_REPRESENTATION_CONTEXT ( 3 ) GLOBAL_UNCERTAINTY_ASSIGNED_CONTEXT ( ( #2 ) ) GLOBAL_UNIT_ASSIGNED_CONTEXT ( ( #44, #182, #58 ) ) REPRESENTATION_CONTEXT ( 'NONE', 'WORKASPACE' ) );
#84 = SURFACE_STYLE_USAGE ( .BOTH. , #211 ) ;
#85 = SHAPE_DEFINITION_REPRESENTATION ( #217, #164 ) ;
#86 = ADVANCED_FACE ( 'NONE', ( #167 ), #135, .T. ) ;
#87 = EDGE_CURVE ( 'NONE', #99, #210, #196, .T. ) ;
#88 = COLOUR_RGB ( '',0.7921568627450980000, 0.8196078431372548800, 0.9333333333333333500 ) ;
#89 = EDGE_LOOP ( 'NONE', ( #214, #183, #169, #180 ) ) ;
#90 = MECHANICAL_DESIGN_GEOMETRIC_PRESENTATION_REPRESENTATION (  '', ( #64 ), #104 ) ;
#91 = PRODUCT ( 'RPSS02-6', 'RPSS02-6', '', ( #166 ) ) ;
#92 = AXIS2_PLACEMENT_3D ( 'NONE', #206, #76, #221 ) ;
#93 = DIRECTION ( 'NONE',  ( 1.000000000000000000, 0.0000000000000000000, 0.0000000000000000000 ) ) ;
#94 = DIRECTION ( 'NONE',  ( 0.0000000000000000000, 0.0000000000000000000, 1.000000000000000000 ) ) ;
#95 = CARTESIAN_POINT ( 'NONE',  ( -0.05750000000000395100, 0.0000000000000000000, 3.000000000000000400 ) ) ;
#96 = LENGTH_MEASURE_WITH_UNIT ( LENGTH_MEASURE( 0.02539999999999999900 ), #154 );
#97 = CARTESIAN_POINT ( 'NONE',  ( 0.05750000000000395100, 7.041719095097766100E-018, 3.000000000000000400 ) ) ;
#98 = EDGE_CURVE ( 'NONE', #198, #120, #144, .T. ) ;
#99 = VERTEX_POINT ( 'NONE', #139 ) ;
#100 = CARTESIAN_POINT ( 'NONE',  ( -0.06250000000000000000, 0.0000000000000000000, -2.994999999999995200 ) ) ;
#101 = CARTESIAN_POINT ( 'NONE',  ( -0.06250000000000000000, 7.654042494670957500E-018, -2.994999999999995200 ) ) ;
#102 =( LENGTH_UNIT ( ) NAMED_UNIT ( * ) SI_UNIT ( $, .METRE. ) );
#103 =( CONVERSION_BASED_UNIT ( 'INCH', #55 ) LENGTH_UNIT ( ) NAMED_UNIT ( #107 ) );
#104 =( GEOMETRIC_REPRESENTATION_CONTEXT ( 3 ) GLOBAL_UNCERTAINTY_ASSIGNED_CONTEXT ( ( #33 ) ) GLOBAL_UNIT_ASSIGNED_CONTEXT ( ( #103, #246, #128 ) ) REPRESENTATION_CONTEXT ( 'NONE', 'WORKASPACE' ) );
#105 = ADVANCED_FACE ( 'NONE', ( #111 ), #189, .T. ) ;
#106 = ORIENTED_EDGE ( 'NONE', *, *, #249, .T. ) ;
#107 = DIMENSIONAL_EXPONENTS ( 1.000000000000000000, 0.0000000000000000000, 0.0000000000000000000, 0.0000000000000000000, 0.0000000000000000000, 0.0000000000000000000, 0.0000000000000000000 ) ;
#108 = AXIS2_PLACEMENT_3D ( 'NONE', #117, #5, #140 ) ;
#109 = VECTOR ( 'NONE', #10, 39.37007874015748900 ) ;
#110 = ORIENTED_EDGE ( 'NONE', *, *, #145, .F. ) ;
#111 = FACE_OUTER_BOUND ( 'NONE', #89, .T. ) ;
#112 = EDGE_CURVE ( 'NONE', #151, #170, #38, .T. ) ;
#113 = CIRCLE ( 'NONE', #4, 0.05750000000000395100 ) ;
#114 = FILL_AREA_STYLE_COLOUR ( '', #14 ) ;
#115 = ORIENTED_EDGE ( 'NONE', *, *, #226, .T. ) ;
#116 = DIRECTION ( 'NONE',  ( -0.0000000000000000000, -0.0000000000000000000, 1.000000000000000000 ) ) ;
#117 = CARTESIAN_POINT ( 'NONE',  ( 0.0000000000000000000, 0.0000000000000000000, -2.994999999999995200 ) ) ;
#118 = FACE_OUTER_BOUND ( 'NONE', #67, .T. ) ;
#119 = CARTESIAN_POINT ( 'NONE',  ( 0.0000000000000000000, 0.0000000000000000000, 3.000000000000000400 ) ) ;
#120 = VERTEX_POINT ( 'NONE', #184 ) ;
#121 = CARTESIAN_POINT ( 'NONE',  ( 0.0000000000000000000, 0.0000000000000000000, 3.000000000000000400 ) ) ;
#122 = DIRECTION ( 'NONE',  ( -0.0000000000000000000, -0.0000000000000000000, -1.000000000000000000 ) ) ;
#123 = VECTOR ( 'NONE', #225, 39.37007874015748900 ) ;
#124 = DIRECTION ( 'NONE',  ( -0.0000000000000000000, -0.0000000000000000000, -1.000000000000000000 ) ) ;
#125 = AXIS2_PLACEMENT_3D ( 'NONE', #239, #24, #46 ) ;
#126 = ORIENTED_EDGE ( 'NONE', *, *, #98, .T. ) ;
#127 =( NAMED_UNIT ( * ) PLANE_ANGLE_UNIT ( ) SI_UNIT ( $, .RADIAN. ) );
#128 =( NAMED_UNIT ( * ) SI_UNIT ( $, .STERADIAN. ) SOLID_ANGLE_UNIT ( ) );
#129 = ADVANCED_FACE ( 'NONE', ( #82 ), #78, .F. ) ;
#130 = EDGE_CURVE ( 'NONE', #40, #173, #241, .T. ) ;
#131 = VECTOR ( 'NONE', #185, 39.37007874015748900 ) ;
#132 = EDGE_LOOP ( 'NONE', ( #242, #77, #201, #110 ) ) ;
#133 = PRODUCT_DEFINITION_CONTEXT ( 'detailed design', #54, 'design' ) ;
#134 = ORIENTED_EDGE ( 'NONE', *, *, #87, .T. ) ;
#135 = CONICAL_SURFACE ( 'NONE', #39, 0.06250000000000000000, 0.7853981633974269600 ) ;
#136 = ORIENTED_EDGE ( 'NONE', *, *, #236, .T. ) ;
#137 = AXIS2_PLACEMENT_3D ( 'NONE', #222, #94, #240 ) ;
#138 = SURFACE_SIDE_STYLE ('',( #218 ) ) ;
#139 = CARTESIAN_POINT ( 'NONE',  ( 0.06250000000000000000, 7.654042494670956000E-018, 2.995000000000004100 ) ) ;
#140 = DIRECTION ( 'NONE',  ( 1.000000000000000000, 0.0000000000000000000, 0.0000000000000000000 ) ) ;
#141 = DIRECTION ( 'NONE',  ( 1.000000000000000000, 0.0000000000000000000, -0.0000000000000000000 ) ) ;
#142 = CARTESIAN_POINT ( 'NONE',  ( 0.0000000000000000000, 0.0000000000000000000, 2.995000000000004100 ) ) ;
#143 = ORIENTED_EDGE ( 'NONE', *, *, #71, .T. ) ;
#144 = CIRCLE ( 'NONE', #108, 0.06250000000000000000 ) ;
#145 = EDGE_CURVE ( 'NONE', #151, #210, #41, .T. ) ;
#146 = DIRECTION ( 'NONE',  ( -1.000000000000000000, 0.0000000000000000000, 0.0000000000000000000 ) ) ;
#147 = EDGE_LOOP ( 'NONE', ( #15, #202, #136, #248 ) ) ;
#148 = DIRECTION ( 'NONE',  ( 0.0000000000000000000, 0.0000000000000000000, 1.000000000000000000 ) ) ;
#149 = AXIS2_PLACEMENT_3D ( 'NONE', #228, #148, #36 ) ;
#150 = LENGTH_MEASURE_WITH_UNIT ( LENGTH_MEASURE( 0.02539999999999999900 ), #102 );
#151 = VERTEX_POINT ( 'NONE', #95 ) ;
#152 = EDGE_CURVE ( 'NONE', #173, #40, #235, .T. ) ;
#153 = DIRECTION ( 'NONE',  ( -0.0000000000000000000, -0.0000000000000000000, 1.000000000000000000 ) ) ;
#154 =( LENGTH_UNIT ( ) NAMED_UNIT ( * ) SI_UNIT ( $, .METRE. ) );
#155 = PRODUCT_DEFINITION ( 'UNKNOWN', '', #174, #133 ) ;
#156 = CARTESIAN_POINT ( 'NONE',  ( 0.0000000000000000000, 0.0000000000000000000, -3.000000000000000400 ) ) ;
#157 = PLANE ( 'NONE',  #234 ) ;
#158 = PRESENTATION_STYLE_ASSIGNMENT (( #22 ) ) ;
#159 = CARTESIAN_POINT ( 'NONE',  ( 0.0000000000000000000, 0.0000000000000000000, -3.000000000000000400 ) ) ;
#160 = DIRECTION ( 'NONE',  ( 1.000000000000000000, 0.0000000000000000000, 0.0000000000000000000 ) ) ;
#161 = DIRECTION ( 'NONE',  ( 0.0000000000000000000, 0.0000000000000000000, 1.000000000000000000 ) ) ;
#162 = DIRECTION ( 'NONE',  ( -0.0000000000000000000, -0.0000000000000000000, 1.000000000000000000 ) ) ;
#163 = LINE ( 'NONE', #190, #11 ) ;
#164 = ADVANCED_BREP_SHAPE_REPRESENTATION ( 'RPSS02-6', ( #48, #149 ), #17 ) ;
#165 = AXIS2_PLACEMENT_3D ( 'NONE', #207, #79, #224 ) ;
#166 = PRODUCT_CONTEXT ( 'NONE', #52, 'mechanical' ) ;
#167 = FACE_OUTER_BOUND ( 'NONE', #147, .T. ) ;
#168 = ADVANCED_FACE ( 'NONE', ( #72 ), #157, .T. ) ;
#169 = ORIENTED_EDGE ( 'NONE', *, *, #145, .T. ) ;
#170 = VERTEX_POINT ( 'NONE', #27 ) ;
#171 = EDGE_CURVE ( 'NONE', #210, #99, #30, .T. ) ;
#172 = LINE ( 'NONE', #101, #227 ) ;
#173 = VERTEX_POINT ( 'NONE', #80 ) ;
#174 = PRODUCT_DEFINITION_FORMATION_WITH_SPECIFIED_SOURCE ( 'ANY', '', #91, .NOT_KNOWN. ) ;
#175 = ORIENTED_EDGE ( 'NONE', *, *, #236, .F. ) ;
#176 = ORIENTED_EDGE ( 'NONE', *, *, #249, .F. ) ;
#177 = DIRECTION ( 'NONE',  ( -1.000000000000000000, 0.0000000000000000000, 0.0000000000000000000 ) ) ;
#178 = LINE ( 'NONE', #97, #123 ) ;
#179 = CARTESIAN_POINT ( 'NONE',  ( 0.0000000000000000000, 0.0000000000000000000, 3.000000000000000400 ) ) ;
#180 = ORIENTED_EDGE ( 'NONE', *, *, #87, .F. ) ;
#181 = AXIS2_PLACEMENT_3D ( 'NONE', #156, #6, #141 ) ;
#182 =( NAMED_UNIT ( * ) PLANE_ANGLE_UNIT ( ) SI_UNIT ( $, .RADIAN. ) );
#183 = ORIENTED_EDGE ( 'NONE', *, *, #112, .F. ) ;
#184 = CARTESIAN_POINT ( 'NONE',  ( 0.06250000000000000000, 7.654042494670956000E-018, -2.994999999999995200 ) ) ;
#185 = DIRECTION ( 'NONE',  ( -0.7071067811865322500, 0.0000000000000000000, -0.7071067811865625600 ) ) ;
#186 = EDGE_LOOP ( 'NONE', ( #176, #134, #143, #126 ) ) ;
#187 = DIRECTION ( 'NONE',  ( 1.000000000000000000, 0.0000000000000000000, 0.0000000000000000000 ) ) ;
#188 = EDGE_CURVE ( 'NONE', #170, #99, #178, .T. ) ;
#189 = CONICAL_SURFACE ( 'NONE', #125, 0.05750000000000395100, 0.7853981633974269600 ) ;
#190 = CARTESIAN_POINT ( 'NONE',  ( 0.06250000000000000000, 7.654042494670956000E-018, 3.000000000000000400 ) ) ;
#191 = FILL_AREA_STYLE_COLOUR ( '', #88 ) ;
#192 = APPLICATION_PROTOCOL_DEFINITION ( 'draft international standard', 'automotive_design', 1998, #54 ) ;
#193 = PRODUCT_RELATED_PRODUCT_CATEGORY ( 'part', '', ( #91 ) ) ;
#194 = EDGE_LOOP ( 'NONE', ( #32, #231 ) ) ;
#195 = ADVANCED_FACE ( 'NONE', ( #232 ), #62, .T. ) ;
#196 = CIRCLE ( 'NONE', #92, 0.06250000000000000000 ) ;
#197 = ORIENTED_EDGE ( 'NONE', *, *, #71, .F. ) ;
#198 = VERTEX_POINT ( 'NONE', #100 ) ;
#199 = AXIS2_PLACEMENT_3D ( 'NONE', #159, #47, #187 ) ;
#200 = PRESENTATION_STYLE_ASSIGNMENT (( #84 ) ) ;
#201 = ORIENTED_EDGE ( 'NONE', *, *, #171, .F. ) ;
#202 = ORIENTED_EDGE ( 'NONE', *, *, #130, .F. ) ;
#203 = EDGE_CURVE ( 'NONE', #170, #151, #113, .T. ) ;
#204 = ORIENTED_EDGE ( 'NONE', *, *, #203, .T. ) ;
#205 = DIRECTION ( 'NONE',  ( 1.000000000000000000, 0.0000000000000000000, 0.0000000000000000000 ) ) ;
#206 = CARTESIAN_POINT ( 'NONE',  ( 0.0000000000000000000, 0.0000000000000000000, 2.995000000000004100 ) ) ;
#207 = CARTESIAN_POINT ( 'NONE',  ( 0.0000000000000000000, 0.0000000000000000000, -3.000000000000000400 ) ) ;
#208 = DIRECTION ( 'NONE',  ( 1.000000000000000000, 0.0000000000000000000, -0.0000000000000000000 ) ) ;
#209 = DIRECTION ( 'NONE',  ( 0.0000000000000000000, 0.0000000000000000000, -1.000000000000000000 ) ) ;
#210 = VERTEX_POINT ( 'NONE', #8 ) ;
#211 = SURFACE_SIDE_STYLE ('',( #216 ) ) ;
#212 = ADVANCED_FACE ( 'NONE', ( #21 ), #16, .T. ) ;
#213 = EDGE_CURVE ( 'NONE', #173, #198, #172, .T. ) ;
#214 = ORIENTED_EDGE ( 'NONE', *, *, #188, .F. ) ;
#215 = UNCERTAINTY_MEASURE_WITH_UNIT (LENGTH_MEASURE( 1.000000000000000100E-005 ), #244, 'distance_accuracy_value', 'NONE');
#216 = SURFACE_STYLE_FILL_AREA ( #63 ) ;
#217 = PRODUCT_DEFINITION_SHAPE ( 'NONE', 'NONE',  #155 ) ;
#218 = SURFACE_STYLE_FILL_AREA ( #3 ) ;
#219 = LINE ( 'NONE', #61, #109 ) ;
#220 = AXIS2_PLACEMENT_3D ( 'NONE', #142, #28, #160 ) ;
#221 = DIRECTION ( 'NONE',  ( 1.000000000000000000, 0.0000000000000000000, 0.0000000000000000000 ) ) ;
#222 = CARTESIAN_POINT ( 'NONE',  ( 0.0000000000000000000, 0.0000000000000000000, 3.000000000000000400 ) ) ;
#223 = VECTOR ( 'NONE', #238, 39.37007874015748100 ) ;
#224 = DIRECTION ( 'NONE',  ( 1.000000000000000000, 0.0000000000000000000, 0.0000000000000000000 ) ) ;
#225 = DIRECTION ( 'NONE',  ( 0.7071067811865322500, 8.659560562354748000E-017, -0.7071067811865625600 ) ) ;
#226 = EDGE_CURVE ( 'NONE', #120, #198, #68, .T. ) ;
#227 = VECTOR ( 'NONE', #243, 39.37007874015748900 ) ;
#228 = CARTESIAN_POINT ( 'NONE',  ( 0.0000000000000000000, 0.0000000000000000000, 0.0000000000000000000 ) ) ;
#229 = ORIENTED_EDGE ( 'NONE', *, *, #112, .T. ) ;
#230 =( LENGTH_UNIT ( ) NAMED_UNIT ( * ) SI_UNIT ( $, .METRE. ) );
#231 = ORIENTED_EDGE ( 'NONE', *, *, #152, .T. ) ;
#232 = FACE_OUTER_BOUND ( 'NONE', #132, .T. ) ;
#233 = ORIENTED_EDGE ( 'NONE', *, *, #152, .F. ) ;
#234 = AXIS2_PLACEMENT_3D ( 'NONE', #119, #60, #208 ) ;
#235 = CIRCLE ( 'NONE', #199, 0.05749999999999521500 ) ;
#236 = EDGE_CURVE ( 'NONE', #40, #120, #219, .T. ) ;
#237 = CARTESIAN_POINT ( 'NONE',  ( 0.05749999999999521500, 0.0000000000000000000, -3.000000000000000400 ) ) ;
#238 = DIRECTION ( 'NONE',  ( -0.0000000000000000000, -0.0000000000000000000, -1.000000000000000000 ) ) ;
#239 = CARTESIAN_POINT ( 'NONE',  ( 0.0000000000000000000, 0.0000000000000000000, 3.000000000000000400 ) ) ;
#240 = DIRECTION ( 'NONE',  ( 1.000000000000000000, 0.0000000000000000000, 0.0000000000000000000 ) ) ;
#241 = CIRCLE ( 'NONE', #165, 0.05749999999999521500 ) ;
#242 = ORIENTED_EDGE ( 'NONE', *, *, #203, .F. ) ;
#243 = DIRECTION ( 'NONE',  ( -0.7071067811865322500, 8.659560562354748000E-017, 0.7071067811865625600 ) ) ;
#244 =( CONVERSION_BASED_UNIT ( 'INCH', #150 ) LENGTH_UNIT ( ) NAMED_UNIT ( #66 ) );
#245 = AXIS2_PLACEMENT_3D ( 'NONE', #121, #209, #7 ) ;
#246 =( NAMED_UNIT ( * ) PLANE_ANGLE_UNIT ( ) SI_UNIT ( $, .RADIAN. ) );
#247 = DIMENSIONAL_EXPONENTS ( 1.000000000000000000, 0.0000000000000000000, 0.0000000000000000000, 0.0000000000000000000, 0.0000000000000000000, 0.0000000000000000000, 0.0000000000000000000 ) ;
#248 = ORIENTED_EDGE ( 'NONE', *, *, #98, .F. ) ;
#249 = EDGE_CURVE ( 'NONE', #99, #120, #163, .T. ) ;
ENDSEC;
END-ISO-10303-21;
