ISO-10303-21;
HEADER;
FILE_DESCRIPTION (( 'STEP AP214' ),
    '1' );
FILE_NAME ('RPSS03-12.step',
    '2017-08-09T17:42:27',
    ( '' ),
    ( '' ),
    'SwSTEP 2.0',
    'SolidWorks 2017',
    '' );
FILE_SCHEMA (( 'AUTOMOTIVE_DESIGN' ));
ENDSEC;

DATA;
#1 = EDGE_LOOP ( 'NONE', ( #111, #55 ) ) ;
#2 = FACE_OUTER_BOUND ( 'NONE', #126, .T. ) ;
#3 = ORIENTED_EDGE ( 'NONE', *, *, #69, .T. ) ;
#4 = LENGTH_MEASURE_WITH_UNIT ( LENGTH_MEASURE( 0.02539999999999999900 ), #71 );
#5 = ORIENTED_EDGE ( 'NONE', *, *, #78, .F. ) ;
#6 = CIRCLE ( 'NONE', #131, 0.09375000000000001400 ) ;
#7 = PLANE ( 'NONE',  #23 ) ;
#8 =( NAMED_UNIT ( * ) PLANE_ANGLE_UNIT ( ) SI_UNIT ( $, .RADIAN. ) );
#9 = STYLED_ITEM ( 'NONE', ( #192 ), #116 ) ;
#10 = ORIENTED_EDGE ( 'NONE', *, *, #185, .T. ) ;
#11 = CYLINDRICAL_SURFACE ( 'NONE', #218, 0.09375000000000001400 ) ;
#12 = CARTESIAN_POINT ( 'NONE',  ( 0.09375000000000001400, 0.0000000000000000000, -5.979999999999996000 ) ) ;
#13 = FACE_OUTER_BOUND ( 'NONE', #204, .T. ) ;
#14 = DIRECTION ( 'NONE',  ( 1.000000000000000000, 0.0000000000000000000, 0.0000000000000000000 ) ) ;
#15 = STYLED_ITEM ( 'NONE', ( #181 ), #38 ) ;
#16 = PRODUCT_CONTEXT ( 'NONE', #152, 'mechanical' ) ;
#17 = ADVANCED_FACE ( 'NONE', ( #215 ), #160, .T. ) ;
#18 = ORIENTED_EDGE ( 'NONE', *, *, #174, .F. ) ;
#19 = DIMENSIONAL_EXPONENTS ( 1.000000000000000000, 0.0000000000000000000, 0.0000000000000000000, 0.0000000000000000000, 0.0000000000000000000, 0.0000000000000000000, 0.0000000000000000000 ) ;
#20 = EDGE_CURVE ( 'NONE', #227, #168, #41, .T. ) ;
#21 = PRESENTATION_LAYER_ASSIGNMENT (  '', '', ( #9 ) ) ;
#22 = CARTESIAN_POINT ( 'NONE',  ( 0.0000000000000000000, 0.0000000000000000000, -6.000000000000000900 ) ) ;
#23 = AXIS2_PLACEMENT_3D ( 'NONE', #176, #177, #62 ) ;
#24 = UNCERTAINTY_MEASURE_WITH_UNIT (LENGTH_MEASURE( 1.000000000000000100E-005 ), #120, 'distance_accuracy_value', 'NONE');
#25 = DIRECTION ( 'NONE',  ( -0.0000000000000000000, -0.0000000000000000000, -1.000000000000000000 ) ) ;
#26 = CIRCLE ( 'NONE', #157, 0.09375000000000001400 ) ;
#27 = EDGE_CURVE ( 'NONE', #168, #227, #92, .T. ) ;
#28 = CARTESIAN_POINT ( 'NONE',  ( 0.0000000000000000000, 0.0000000000000000000, 6.000000000000000900 ) ) ;
#29 = CARTESIAN_POINT ( 'NONE',  ( 0.07374999999999425100, 0.0000000000000000000, -6.000000000000000900 ) ) ;
#30 = FILL_AREA_STYLE_COLOUR ( '', #209 ) ;
#31 = VECTOR ( 'NONE', #180, 39.37007874015748900 ) ;
#32 = APPLICATION_PROTOCOL_DEFINITION ( 'draft international standard', 'automotive_design', 1998, #153 ) ;
#33 = ADVANCED_FACE ( 'NONE', ( #242 ), #7, .F. ) ;
#34 = MECHANICAL_DESIGN_GEOMETRIC_PRESENTATION_REPRESENTATION (  '', ( #9 ), #45 ) ;
#35 = CIRCLE ( 'NONE', #89, 0.09375000000000001400 ) ;
#36 = VECTOR ( 'NONE', #105, 39.37007874015748100 ) ;
#37 = VECTOR ( 'NONE', #124, 39.37007874015748900 ) ;
#38 = MANIFOLD_SOLID_BREP ( 'Chamfer1', #39 ) ;
#39 = CLOSED_SHELL ( 'NONE', ( #91, #110, #188, #54, #17, #33, #249, #206 ) ) ;
#40 = PRESENTATION_LAYER_ASSIGNMENT (  '', '', ( #15 ) ) ;
#41 = CIRCLE ( 'NONE', #213, 0.07374999999999425100 ) ;
#42 = EDGE_CURVE ( 'NONE', #175, #166, #189, .T. ) ;
#43 = DIRECTION ( 'NONE',  ( 0.0000000000000000000, 0.0000000000000000000, 1.000000000000000000 ) ) ;
#44 = DIRECTION ( 'NONE',  ( 1.000000000000000000, 0.0000000000000000000, 0.0000000000000000000 ) ) ;
#45 =( GEOMETRIC_REPRESENTATION_CONTEXT ( 3 ) GLOBAL_UNCERTAINTY_ASSIGNED_CONTEXT ( ( #163 ) ) GLOBAL_UNIT_ASSIGNED_CONTEXT ( ( #205, #90, #225 ) ) REPRESENTATION_CONTEXT ( 'NONE', 'WORKASPACE' ) );
#46 = CARTESIAN_POINT ( 'NONE',  ( -0.09375000000000001400, 1.148106374200643400E-017, -5.979999999999996000 ) ) ;
#47 = ORIENTED_EDGE ( 'NONE', *, *, #149, .F. ) ;
#48 = CARTESIAN_POINT ( 'NONE',  ( 0.09375000000000001400, 1.148106374200643400E-017, -5.979999999999993300 ) ) ;
#49 = DIRECTION ( 'NONE',  ( 0.0000000000000000000, 0.0000000000000000000, -1.000000000000000000 ) ) ;
#50 = DIRECTION ( 'NONE',  ( 0.0000000000000000000, 0.0000000000000000000, 1.000000000000000000 ) ) ;
#51 = ORIENTED_EDGE ( 'NONE', *, *, #93, .T. ) ;
#52 = MECHANICAL_DESIGN_GEOMETRIC_PRESENTATION_REPRESENTATION (  '', ( #15 ), #63 ) ;
#53 = SURFACE_SIDE_STYLE ('',( #156 ) ) ;
#54 = ADVANCED_FACE ( 'NONE', ( #115 ), #211, .T. ) ;
#55 = ORIENTED_EDGE ( 'NONE', *, *, #27, .T. ) ;
#56 = ORIENTED_EDGE ( 'NONE', *, *, #161, .F. ) ;
#57 = EDGE_CURVE ( 'NONE', #151, #186, #60, .T. ) ;
#58 = LINE ( 'NONE', #46, #31 ) ;
#59 = ORIENTED_EDGE ( 'NONE', *, *, #118, .F. ) ;
#60 = LINE ( 'NONE', #100, #85 ) ;
#61 = CARTESIAN_POINT ( 'NONE',  ( 0.0000000000000000000, 0.0000000000000000000, 6.000000000000000900 ) ) ;
#62 = DIRECTION ( 'NONE',  ( 1.000000000000000000, 0.0000000000000000000, -0.0000000000000000000 ) ) ;
#63 =( GEOMETRIC_REPRESENTATION_CONTEXT ( 3 ) GLOBAL_UNCERTAINTY_ASSIGNED_CONTEXT ( ( #24 ) ) GLOBAL_UNIT_ASSIGNED_CONTEXT ( ( #120, #8, #143 ) ) REPRESENTATION_CONTEXT ( 'NONE', 'WORKASPACE' ) );
#64 = DIRECTION ( 'NONE',  ( -1.000000000000000000, 0.0000000000000000000, 0.0000000000000000000 ) ) ;
#65 = EDGE_LOOP ( 'NONE', ( #129, #193, #155, #18 ) ) ;
#66 = DIRECTION ( 'NONE',  ( 0.0000000000000000000, 0.0000000000000000000, -1.000000000000000000 ) ) ;
#67 = CARTESIAN_POINT ( 'NONE',  ( -0.07374999999999425100, 1.025641694285872900E-017, -6.000000000000000900 ) ) ;
#68 = CARTESIAN_POINT ( 'NONE',  ( -0.09375000000000001400, 0.0000000000000000000, 5.980000000000003100 ) ) ;
#69 = EDGE_CURVE ( 'NONE', #186, #166, #35, .T. ) ;
#70 = DIRECTION ( 'NONE',  ( -0.0000000000000000000, -0.0000000000000000000, -1.000000000000000000 ) ) ;
#71 =( LENGTH_UNIT ( ) NAMED_UNIT ( * ) SI_UNIT ( $, .METRE. ) );
#72 = UNCERTAINTY_MEASURE_WITH_UNIT (LENGTH_MEASURE( 1.000000000000000100E-005 ), #88, 'distance_accuracy_value', 'NONE');
#73 = DIMENSIONAL_EXPONENTS ( 1.000000000000000000, 0.0000000000000000000, 0.0000000000000000000, 0.0000000000000000000, 0.0000000000000000000, 0.0000000000000000000, 0.0000000000000000000 ) ;
#74 = CONICAL_SURFACE ( 'NONE', #144, 0.09375000000000001400, 0.7853981633974748100 ) ;
#75 = AXIS2_PLACEMENT_3D ( 'NONE', #101, #240, #122 ) ;
#76 = LINE ( 'NONE', #86, #36 ) ;
#77 = VECTOR ( 'NONE', #25, 39.37007874015748100 ) ;
#78 = EDGE_CURVE ( 'NONE', #175, #151, #159, .T. ) ;
#79 = DIRECTION ( 'NONE',  ( 0.7071067811865275900, 8.659560562354688800E-017, -0.7071067811865674500 ) ) ;
#80 = FILL_AREA_STYLE ('',( #141 ) ) ;
#81 = CARTESIAN_POINT ( 'NONE',  ( 0.0000000000000000000, 0.0000000000000000000, 6.000000000000000900 ) ) ;
#82 = CARTESIAN_POINT ( 'NONE',  ( 0.0000000000000000000, 0.0000000000000000000, 6.000000000000000900 ) ) ;
#83 = AXIS2_PLACEMENT_3D ( 'NONE', #201, #247, #132 ) ;
#84 = CARTESIAN_POINT ( 'NONE',  ( 0.0000000000000000000, 0.0000000000000000000, -5.979999999999996000 ) ) ;
#85 = VECTOR ( 'NONE', #217, 39.37007874015748100 ) ;
#86 = CARTESIAN_POINT ( 'NONE',  ( -0.09375000000000001400, 0.0000000000000000000, 6.000000000000000900 ) ) ;
#87 = DIRECTION ( 'NONE',  ( -1.000000000000000000, 0.0000000000000000000, 0.0000000000000000000 ) ) ;
#88 =( CONVERSION_BASED_UNIT ( 'INCH', #232 ) LENGTH_UNIT ( ) NAMED_UNIT ( #154 ) );
#89 = AXIS2_PLACEMENT_3D ( 'NONE', #179, #66, #196 ) ;
#90 =( NAMED_UNIT ( * ) PLANE_ANGLE_UNIT ( ) SI_UNIT ( $, .RADIAN. ) );
#91 = ADVANCED_FACE ( 'NONE', ( #13 ), #103, .T. ) ;
#92 = CIRCLE ( 'NONE', #235, 0.07374999999999425100 ) ;
#93 = EDGE_CURVE ( 'NONE', #168, #208, #58, .T. ) ;
#94 = PRODUCT_DEFINITION ( 'UNKNOWN', '', #112, #136 ) ;
#95 = ORIENTED_EDGE ( 'NONE', *, *, #78, .T. ) ;
#96 = CARTESIAN_POINT ( 'NONE',  ( 0.0000000000000000000, 0.0000000000000000000, -6.000000000000000900 ) ) ;
#97 = ORIENTED_EDGE ( 'NONE', *, *, #149, .T. ) ;
#98 = SURFACE_STYLE_USAGE ( .BOTH. , #216 ) ;
#99 = AXIS2_PLACEMENT_3D ( 'NONE', #81, #164, #64 ) ;
#100 = CARTESIAN_POINT ( 'NONE',  ( -0.07375000000000407600, 0.0000000000000000000, 6.000000000000000900 ) ) ;
#101 = CARTESIAN_POINT ( 'NONE',  ( 0.0000000000000000000, 0.0000000000000000000, 6.000000000000000900 ) ) ;
#102 = EDGE_LOOP ( 'NONE', ( #214, #134, #97, #238 ) ) ;
#103 = CONICAL_SURFACE ( 'NONE', #117, 0.07375000000000407600, 0.7853981633974200800 ) ;
#104 = DIRECTION ( 'NONE',  ( -0.0000000000000000000, -0.0000000000000000000, 1.000000000000000000 ) ) ;
#105 = DIRECTION ( 'NONE',  ( -0.0000000000000000000, -0.0000000000000000000, -1.000000000000000000 ) ) ;
#106 = CARTESIAN_POINT ( 'NONE',  ( 0.0000000000000000000, 0.0000000000000000000, -5.979999999999993300 ) ) ;
#107 = LINE ( 'NONE', #167, #77 ) ;
#108 = EDGE_CURVE ( 'NONE', #140, #208, #6, .T. ) ;
#109 =( NAMED_UNIT ( * ) SI_UNIT ( $, .STERADIAN. ) SOLID_ANGLE_UNIT ( ) );
#110 = ADVANCED_FACE ( 'NONE', ( #2 ), #74, .T. ) ;
#111 = ORIENTED_EDGE ( 'NONE', *, *, #20, .T. ) ;
#112 = PRODUCT_DEFINITION_FORMATION_WITH_SPECIFIED_SOURCE ( 'ANY', '', #226, .NOT_KNOWN. ) ;
#113 = ORIENTED_EDGE ( 'NONE', *, *, #42, .T. ) ;
#114 = CIRCLE ( 'NONE', #178, 0.07375000000000407600 ) ;
#115 = FACE_OUTER_BOUND ( 'NONE', #102, .T. ) ;
#116 = ADVANCED_BREP_SHAPE_REPRESENTATION ( 'RPSS03-12', ( #38, #83 ), #231 ) ;
#117 = AXIS2_PLACEMENT_3D ( 'NONE', #82, #165, #219 ) ;
#118 = EDGE_CURVE ( 'NONE', #227, #140, #133, .T. ) ;
#119 = DIRECTION ( 'NONE',  ( 1.000000000000000000, 0.0000000000000000000, 0.0000000000000000000 ) ) ;
#120 =( CONVERSION_BASED_UNIT ( 'INCH', #125 ) LENGTH_UNIT ( ) NAMED_UNIT ( #73 ) );
#121 = FACE_OUTER_BOUND ( 'NONE', #197, .T. ) ;
#122 = DIRECTION ( 'NONE',  ( 1.000000000000000000, 0.0000000000000000000, 0.0000000000000000000 ) ) ;
#123 = PRODUCT_RELATED_PRODUCT_CATEGORY ( 'part', '', ( #226 ) ) ;
#124 = DIRECTION ( 'NONE',  ( 0.7071067811865662200, 0.0000000000000000000, 0.7071067811865287000 ) ) ;
#125 = LENGTH_MEASURE_WITH_UNIT ( LENGTH_MEASURE( 0.02539999999999999900 ), #237 );
#126 = EDGE_LOOP ( 'NONE', ( #248, #51, #158, #59 ) ) ;
#127 = DIRECTION ( 'NONE',  ( 1.000000000000000000, 0.0000000000000000000, 0.0000000000000000000 ) ) ;
#128 = CARTESIAN_POINT ( 'NONE',  ( -0.09375000000000001400, 0.0000000000000000000, -5.979999999999993300 ) ) ;
#129 = ORIENTED_EDGE ( 'NONE', *, *, #93, .F. ) ;
#130 = APPLICATION_PROTOCOL_DEFINITION ( 'draft international standard', 'automotive_design', 1998, #152 ) ;
#131 = AXIS2_PLACEMENT_3D ( 'NONE', #220, #104, #241 ) ;
#132 = DIRECTION ( 'NONE',  ( 1.000000000000000000, 0.0000000000000000000, 0.0000000000000000000 ) ) ;
#133 = LINE ( 'NONE', #12, #37 ) ;
#134 = ORIENTED_EDGE ( 'NONE', *, *, #161, .T. ) ;
#135 = EDGE_CURVE ( 'NONE', #166, #140, #107, .T. ) ;
#136 = PRODUCT_DEFINITION_CONTEXT ( 'detailed design', #153, 'design' ) ;
#137 = EDGE_LOOP ( 'NONE', ( #10, #95 ) ) ;
#138 = COLOUR_RGB ( '',0.7921568627450980000, 0.8196078431372548800, 0.9333333333333333500 ) ;
#139 = DIRECTION ( 'NONE',  ( 1.000000000000000000, 0.0000000000000000000, -0.0000000000000000000 ) ) ;
#140 = VERTEX_POINT ( 'NONE', #48 ) ;
#141 = FILL_AREA_STYLE_COLOUR ( '', #138 ) ;
#142 = ORIENTED_EDGE ( 'NONE', *, *, #57, .F. ) ;
#143 =( NAMED_UNIT ( * ) SI_UNIT ( $, .STERADIAN. ) SOLID_ANGLE_UNIT ( ) );
#144 = AXIS2_PLACEMENT_3D ( 'NONE', #84, #145, #239 ) ;
#145 = DIRECTION ( 'NONE',  ( -0.0000000000000000000, -0.0000000000000000000, 1.000000000000000000 ) ) ;
#146 = ORIENTED_EDGE ( 'NONE', *, *, #108, .T. ) ;
#147 = FACE_OUTER_BOUND ( 'NONE', #65, .T. ) ;
#148 = CARTESIAN_POINT ( 'NONE',  ( 0.09375000000000001400, 1.148106374200643400E-017, 5.980000000000003100 ) ) ;
#149 = EDGE_CURVE ( 'NONE', #186, #208, #76, .T. ) ;
#150 = CARTESIAN_POINT ( 'NONE',  ( 0.0000000000000000000, 0.0000000000000000000, -5.979999999999996000 ) ) ;
#151 = VERTEX_POINT ( 'NONE', #199 ) ;
#152 = APPLICATION_CONTEXT ( 'automotive_design' ) ;
#153 = APPLICATION_CONTEXT ( 'automotive_design' ) ;
#154 = DIMENSIONAL_EXPONENTS ( 1.000000000000000000, 0.0000000000000000000, 0.0000000000000000000, 0.0000000000000000000, 0.0000000000000000000, 0.0000000000000000000, 0.0000000000000000000 ) ;
#155 = ORIENTED_EDGE ( 'NONE', *, *, #118, .T. ) ;
#156 = SURFACE_STYLE_FILL_AREA ( #172 ) ;
#157 = AXIS2_PLACEMENT_3D ( 'NONE', #169, #49, #183 ) ;
#158 = ORIENTED_EDGE ( 'NONE', *, *, #108, .F. ) ;
#159 = CIRCLE ( 'NONE', #75, 0.07375000000000407600 ) ;
#160 = PLANE ( 'NONE',  #223 ) ;
#161 = EDGE_CURVE ( 'NONE', #166, #186, #26, .T. ) ;
#162 = DIRECTION ( 'NONE',  ( -0.0000000000000000000, -0.0000000000000000000, -1.000000000000000000 ) ) ;
#163 = UNCERTAINTY_MEASURE_WITH_UNIT (LENGTH_MEASURE( 1.000000000000000100E-005 ), #205, 'distance_accuracy_value', 'NONE');
#164 = DIRECTION ( 'NONE',  ( -0.0000000000000000000, -0.0000000000000000000, -1.000000000000000000 ) ) ;
#165 = DIRECTION ( 'NONE',  ( 0.0000000000000000000, 0.0000000000000000000, -1.000000000000000000 ) ) ;
#166 = VERTEX_POINT ( 'NONE', #148 ) ;
#167 = CARTESIAN_POINT ( 'NONE',  ( 0.09375000000000001400, 1.148106374200643400E-017, 6.000000000000000900 ) ) ;
#168 = VERTEX_POINT ( 'NONE', #67 ) ;
#169 = CARTESIAN_POINT ( 'NONE',  ( 0.0000000000000000000, 0.0000000000000000000, 5.980000000000003100 ) ) ;
#170 = VECTOR ( 'NONE', #79, 39.37007874015748100 ) ;
#171 = CARTESIAN_POINT ( 'NONE',  ( 0.0000000000000000000, 0.0000000000000000000, 6.000000000000000900 ) ) ;
#172 = FILL_AREA_STYLE ('',( #30 ) ) ;
#173 = AXIS2_PLACEMENT_3D ( 'NONE', #106, #245, #127 ) ;
#174 = EDGE_CURVE ( 'NONE', #208, #140, #243, .T. ) ;
#175 = VERTEX_POINT ( 'NONE', #244 ) ;
#176 = CARTESIAN_POINT ( 'NONE',  ( 0.0000000000000000000, 0.0000000000000000000, -6.000000000000000900 ) ) ;
#177 = DIRECTION ( 'NONE',  ( 0.0000000000000000000, 0.0000000000000000000, 1.000000000000000000 ) ) ;
#178 = AXIS2_PLACEMENT_3D ( 'NONE', #171, #50, #184 ) ;
#179 = CARTESIAN_POINT ( 'NONE',  ( 0.0000000000000000000, 0.0000000000000000000, 5.980000000000003100 ) ) ;
#180 = DIRECTION ( 'NONE',  ( -0.7071067811865662200, 8.659560562355160900E-017, 0.7071067811865287000 ) ) ;
#181 = PRESENTATION_STYLE_ASSIGNMENT (( #98 ) ) ;
#182 = SHAPE_DEFINITION_REPRESENTATION ( #212, #116 ) ;
#183 = DIRECTION ( 'NONE',  ( 1.000000000000000000, 0.0000000000000000000, 0.0000000000000000000 ) ) ;
#184 = DIRECTION ( 'NONE',  ( 1.000000000000000000, 0.0000000000000000000, 0.0000000000000000000 ) ) ;
#185 = EDGE_CURVE ( 'NONE', #151, #175, #114, .T. ) ;
#186 = VERTEX_POINT ( 'NONE', #68 ) ;
#187 = SURFACE_STYLE_USAGE ( .BOTH. , #53 ) ;
#188 = ADVANCED_FACE ( 'NONE', ( #121 ), #11, .T. ) ;
#189 = LINE ( 'NONE', #195, #170 ) ;
#190 = FACE_OUTER_BOUND ( 'NONE', #228, .T. ) ;
#191 = AXIS2_PLACEMENT_3D ( 'NONE', #150, #221, #14 ) ;
#192 = PRESENTATION_STYLE_ASSIGNMENT (( #187 ) ) ;
#193 = ORIENTED_EDGE ( 'NONE', *, *, #20, .F. ) ;
#194 = CONICAL_SURFACE ( 'NONE', #207, 0.07375000000000407600, 0.7853981633974200800 ) ;
#195 = CARTESIAN_POINT ( 'NONE',  ( 0.07375000000000407600, 9.031770143712230700E-018, 6.000000000000000900 ) ) ;
#196 = DIRECTION ( 'NONE',  ( 1.000000000000000000, 0.0000000000000000000, 0.0000000000000000000 ) ) ;
#197 = EDGE_LOOP ( 'NONE', ( #3, #229, #146, #47 ) ) ;
#198 = CONICAL_SURFACE ( 'NONE', #191, 0.09375000000000001400, 0.7853981633974748100 ) ;
#199 = CARTESIAN_POINT ( 'NONE',  ( -0.07375000000000407600, 0.0000000000000000000, 6.000000000000000900 ) ) ;
#200 = DIRECTION ( 'NONE',  ( -1.000000000000000000, 0.0000000000000000000, 0.0000000000000000000 ) ) ;
#201 = CARTESIAN_POINT ( 'NONE',  ( 0.0000000000000000000, 0.0000000000000000000, 0.0000000000000000000 ) ) ;
#202 =( LENGTH_UNIT ( ) NAMED_UNIT ( * ) SI_UNIT ( $, .METRE. ) );
#203 = ORIENTED_EDGE ( 'NONE', *, *, #185, .F. ) ;
#204 = EDGE_LOOP ( 'NONE', ( #5, #113, #236, #142 ) ) ;
#205 =( CONVERSION_BASED_UNIT ( 'INCH', #4 ) LENGTH_UNIT ( ) NAMED_UNIT ( #19 ) );
#206 = ADVANCED_FACE ( 'NONE', ( #190 ), #194, .T. ) ;
#207 = AXIS2_PLACEMENT_3D ( 'NONE', #222, #246, #87 ) ;
#208 = VERTEX_POINT ( 'NONE', #128 ) ;
#209 = COLOUR_RGB ( '',0.7921568627450980000, 0.8196078431372548800, 0.9333333333333333500 ) ;
#210 = ORIENTED_EDGE ( 'NONE', *, *, #57, .T. ) ;
#211 = CYLINDRICAL_SURFACE ( 'NONE', #99, 0.09375000000000001400 ) ;
#212 = PRODUCT_DEFINITION_SHAPE ( 'NONE', 'NONE',  #94 ) ;
#213 = AXIS2_PLACEMENT_3D ( 'NONE', #96, #234, #119 ) ;
#214 = ORIENTED_EDGE ( 'NONE', *, *, #135, .F. ) ;
#215 = FACE_OUTER_BOUND ( 'NONE', #137, .T. ) ;
#216 = SURFACE_SIDE_STYLE ('',( #233 ) ) ;
#217 = DIRECTION ( 'NONE',  ( -0.7071067811865275900, 0.0000000000000000000, -0.7071067811865674500 ) ) ;
#218 = AXIS2_PLACEMENT_3D ( 'NONE', #28, #70, #200 ) ;
#219 = DIRECTION ( 'NONE',  ( -1.000000000000000000, 0.0000000000000000000, 0.0000000000000000000 ) ) ;
#220 = CARTESIAN_POINT ( 'NONE',  ( 0.0000000000000000000, 0.0000000000000000000, -5.979999999999993300 ) ) ;
#221 = DIRECTION ( 'NONE',  ( -0.0000000000000000000, -0.0000000000000000000, 1.000000000000000000 ) ) ;
#222 = CARTESIAN_POINT ( 'NONE',  ( 0.0000000000000000000, 0.0000000000000000000, 6.000000000000000900 ) ) ;
#223 = AXIS2_PLACEMENT_3D ( 'NONE', #61, #43, #139 ) ;
#224 =( NAMED_UNIT ( * ) PLANE_ANGLE_UNIT ( ) SI_UNIT ( $, .RADIAN. ) );
#225 =( NAMED_UNIT ( * ) SI_UNIT ( $, .STERADIAN. ) SOLID_ANGLE_UNIT ( ) );
#226 = PRODUCT ( 'RPSS03-12', 'RPSS03-12', '', ( #16 ) ) ;
#227 = VERTEX_POINT ( 'NONE', #29 ) ;
#228 = EDGE_LOOP ( 'NONE', ( #230, #203, #210, #56 ) ) ;
#229 = ORIENTED_EDGE ( 'NONE', *, *, #135, .T. ) ;
#230 = ORIENTED_EDGE ( 'NONE', *, *, #42, .F. ) ;
#231 =( GEOMETRIC_REPRESENTATION_CONTEXT ( 3 ) GLOBAL_UNCERTAINTY_ASSIGNED_CONTEXT ( ( #72 ) ) GLOBAL_UNIT_ASSIGNED_CONTEXT ( ( #88, #224, #109 ) ) REPRESENTATION_CONTEXT ( 'NONE', 'WORKASPACE' ) );
#232 = LENGTH_MEASURE_WITH_UNIT ( LENGTH_MEASURE( 0.02539999999999999900 ), #202 );
#233 = SURFACE_STYLE_FILL_AREA ( #80 ) ;
#234 = DIRECTION ( 'NONE',  ( -0.0000000000000000000, -0.0000000000000000000, -1.000000000000000000 ) ) ;
#235 = AXIS2_PLACEMENT_3D ( 'NONE', #22, #162, #44 ) ;
#236 = ORIENTED_EDGE ( 'NONE', *, *, #69, .F. ) ;
#237 =( LENGTH_UNIT ( ) NAMED_UNIT ( * ) SI_UNIT ( $, .METRE. ) );
#238 = ORIENTED_EDGE ( 'NONE', *, *, #174, .T. ) ;
#239 = DIRECTION ( 'NONE',  ( 1.000000000000000000, 0.0000000000000000000, 0.0000000000000000000 ) ) ;
#240 = DIRECTION ( 'NONE',  ( 0.0000000000000000000, 0.0000000000000000000, 1.000000000000000000 ) ) ;
#241 = DIRECTION ( 'NONE',  ( 1.000000000000000000, 0.0000000000000000000, 0.0000000000000000000 ) ) ;
#242 = FACE_OUTER_BOUND ( 'NONE', #1, .T. ) ;
#243 = CIRCLE ( 'NONE', #173, 0.09375000000000001400 ) ;
#244 = CARTESIAN_POINT ( 'NONE',  ( 0.07375000000000407600, 1.025641694285933500E-017, 6.000000000000000900 ) ) ;
#245 = DIRECTION ( 'NONE',  ( -0.0000000000000000000, -0.0000000000000000000, 1.000000000000000000 ) ) ;
#246 = DIRECTION ( 'NONE',  ( 0.0000000000000000000, 0.0000000000000000000, -1.000000000000000000 ) ) ;
#247 = DIRECTION ( 'NONE',  ( 0.0000000000000000000, 0.0000000000000000000, 1.000000000000000000 ) ) ;
#248 = ORIENTED_EDGE ( 'NONE', *, *, #27, .F. ) ;
#249 = ADVANCED_FACE ( 'NONE', ( #147 ), #198, .T. ) ;
ENDSEC;
END-ISO-10303-21;
