ISO-10303-21;
HEADER;
FILE_DESCRIPTION (( 'STEP AP214' ),
    '1' );
FILE_NAME ('RPSS03-24.step',
    '2017-08-09T17:42:44',
    ( '' ),
    ( '' ),
    'SwSTEP 2.0',
    'SolidWorks 2017',
    '' );
FILE_SCHEMA (( 'AUTOMOTIVE_DESIGN' ));
ENDSEC;

DATA;
#1 = CIRCLE ( 'NONE', #126, 0.09375000000000001400 ) ;
#2 = PRESENTATION_LAYER_ASSIGNMENT (  '', '', ( #56 ) ) ;
#3 = EDGE_LOOP ( 'NONE', ( #134, #76 ) ) ;
#4 = DIRECTION ( 'NONE',  ( 1.000000000000000000, 0.0000000000000000000, 0.0000000000000000000 ) ) ;
#5 = CARTESIAN_POINT ( 'NONE',  ( 0.09375000000000001400, 1.148106374200643400E-017, 11.98000000000000800 ) ) ;
#6 = DIRECTION ( 'NONE',  ( 1.000000000000000000, 0.0000000000000000000, 0.0000000000000000000 ) ) ;
#7 = MECHANICAL_DESIGN_GEOMETRIC_PRESENTATION_REPRESENTATION (  '', ( #38 ), #243 ) ;
#8 = DIRECTION ( 'NONE',  ( 1.000000000000000000, 0.0000000000000000000, 0.0000000000000000000 ) ) ;
#9 = DIRECTION ( 'NONE',  ( 0.0000000000000000000, 0.0000000000000000000, -1.000000000000000000 ) ) ;
#10 = APPLICATION_CONTEXT ( 'automotive_design' ) ;
#11 = FILL_AREA_STYLE_COLOUR ( '', #190 ) ;
#12 = EDGE_CURVE ( 'NONE', #181, #218, #54, .T. ) ;
#13 = PRODUCT_DEFINITION_SHAPE ( 'NONE', 'NONE',  #193 ) ;
#14 = LENGTH_MEASURE_WITH_UNIT ( LENGTH_MEASURE( 0.02539999999999999900 ), #18 );
#15 = AXIS2_PLACEMENT_3D ( 'NONE', #16, #209, #98 ) ;
#16 = CARTESIAN_POINT ( 'NONE',  ( 0.0000000000000000000, 0.0000000000000000000, 12.00000000000000200 ) ) ;
#17 = ORIENTED_EDGE ( 'NONE', *, *, #169, .F. ) ;
#18 =( LENGTH_UNIT ( ) NAMED_UNIT ( * ) SI_UNIT ( $, .METRE. ) );
#19 =( NAMED_UNIT ( * ) SI_UNIT ( $, .STERADIAN. ) SOLID_ANGLE_UNIT ( ) );
#20 = PRESENTATION_LAYER_ASSIGNMENT (  '', '', ( #38 ) ) ;
#21 = VERTEX_POINT ( 'NONE', #57 ) ;
#22 = CIRCLE ( 'NONE', #71, 0.09375000000000001400 ) ;
#23 = DIMENSIONAL_EXPONENTS ( 1.000000000000000000, 0.0000000000000000000, 0.0000000000000000000, 0.0000000000000000000, 0.0000000000000000000, 0.0000000000000000000, 0.0000000000000000000 ) ;
#24 = EDGE_LOOP ( 'NONE', ( #17, #167, #127, #119 ) ) ;
#25 = ORIENTED_EDGE ( 'NONE', *, *, #129, .T. ) ;
#26 = EDGE_CURVE ( 'NONE', #21, #34, #196, .T. ) ;
#27 = APPLICATION_CONTEXT ( 'automotive_design' ) ;
#28 = DIRECTION ( 'NONE',  ( -1.000000000000000000, 0.0000000000000000000, 0.0000000000000000000 ) ) ;
#29 = ORIENTED_EDGE ( 'NONE', *, *, #232, .T. ) ;
#30 = CARTESIAN_POINT ( 'NONE',  ( -0.07375000000000844800, 0.0000000000000000000, 12.00000000000000200 ) ) ;
#31 = SURFACE_SIDE_STYLE ('',( #72 ) ) ;
#32 =( NAMED_UNIT ( * ) PLANE_ANGLE_UNIT ( ) SI_UNIT ( $, .RADIAN. ) );
#33 = AXIS2_PLACEMENT_3D ( 'NONE', #74, #96, #112 ) ;
#34 = VERTEX_POINT ( 'NONE', #131 ) ;
#35 = ORIENTED_EDGE ( 'NONE', *, *, #207, .F. ) ;
#36 = FACE_OUTER_BOUND ( 'NONE', #82, .T. ) ;
#37 = EDGE_LOOP ( 'NONE', ( #73, #171, #124, #39 ) ) ;
#38 = STYLED_ITEM ( 'NONE', ( #152 ), #155 ) ;
#39 = ORIENTED_EDGE ( 'NONE', *, *, #219, .F. ) ;
#40 = CARTESIAN_POINT ( 'NONE',  ( 0.0000000000000000000, 0.0000000000000000000, -12.00000000000000200 ) ) ;
#41 = SURFACE_STYLE_FILL_AREA ( #113 ) ;
#42 = CIRCLE ( 'NONE', #86, 0.09375000000000001400 ) ;
#43 =( NAMED_UNIT ( * ) PLANE_ANGLE_UNIT ( ) SI_UNIT ( $, .RADIAN. ) );
#44 = AXIS2_PLACEMENT_3D ( 'NONE', #208, #189, #191 ) ;
#45 = ADVANCED_FACE ( 'NONE', ( #148 ), #241, .T. ) ;
#46 = CONICAL_SURFACE ( 'NONE', #110, 0.07375000000000844800, 0.7853981633973927700 ) ;
#47 = LINE ( 'NONE', #184, #242 ) ;
#48 = CARTESIAN_POINT ( 'NONE',  ( 0.0000000000000000000, 0.0000000000000000000, 12.00000000000000200 ) ) ;
#49 = CARTESIAN_POINT ( 'NONE',  ( 0.0000000000000000000, 0.0000000000000000000, -12.00000000000000200 ) ) ;
#50 = DIRECTION ( 'NONE',  ( -0.0000000000000000000, -0.0000000000000000000, 1.000000000000000000 ) ) ;
#51 = LINE ( 'NONE', #239, #234 ) ;
#52 =( LENGTH_UNIT ( ) NAMED_UNIT ( * ) SI_UNIT ( $, .METRE. ) );
#53 = CARTESIAN_POINT ( 'NONE',  ( 0.09375000000000001400, 1.148106374200643400E-017, 12.00000000000000200 ) ) ;
#54 = CIRCLE ( 'NONE', #93, 0.07375000000000844800 ) ;
#55 = VECTOR ( 'NONE', #228, 39.37007874015748100 ) ;
#56 = STYLED_ITEM ( 'NONE', ( #233 ), #92 ) ;
#57 = CARTESIAN_POINT ( 'NONE',  ( 0.07374999999998221900, 0.0000000000000000000, -12.00000000000000200 ) ) ;
#58 = DIRECTION ( 'NONE',  ( 1.000000000000000000, 0.0000000000000000000, 0.0000000000000000000 ) ) ;
#59 =( GEOMETRIC_REPRESENTATION_CONTEXT ( 3 ) GLOBAL_UNCERTAINTY_ASSIGNED_CONTEXT ( ( #109 ) ) GLOBAL_UNIT_ASSIGNED_CONTEXT ( ( #199, #87, #216 ) ) REPRESENTATION_CONTEXT ( 'NONE', 'WORKASPACE' ) );
#60 = ADVANCED_FACE ( 'NONE', ( #246 ), #140, .T. ) ;
#61 = DIRECTION ( 'NONE',  ( 0.0000000000000000000, 0.0000000000000000000, -1.000000000000000000 ) ) ;
#62 = DIRECTION ( 'NONE',  ( 1.000000000000000000, 0.0000000000000000000, -0.0000000000000000000 ) ) ;
#63 = UNCERTAINTY_MEASURE_WITH_UNIT (LENGTH_MEASURE( 1.000000000000000100E-005 ), #154, 'distance_accuracy_value', 'NONE');
#64 =( LENGTH_UNIT ( ) NAMED_UNIT ( * ) SI_UNIT ( $, .METRE. ) );
#65 = ORIENTED_EDGE ( 'NONE', *, *, #26, .T. ) ;
#66 = CARTESIAN_POINT ( 'NONE',  ( 0.09375000000000001400, 1.148106374200643400E-017, -11.97999999999998100 ) ) ;
#67 = DIRECTION ( 'NONE',  ( -0.0000000000000000000, -0.0000000000000000000, 1.000000000000000000 ) ) ;
#68 = ORIENTED_EDGE ( 'NONE', *, *, #245, .T. ) ;
#69 = ORIENTED_EDGE ( 'NONE', *, *, #188, .F. ) ;
#70 = ORIENTED_EDGE ( 'NONE', *, *, #108, .F. ) ;
#71 = AXIS2_PLACEMENT_3D ( 'NONE', #161, #50, #183 ) ;
#72 = SURFACE_STYLE_FILL_AREA ( #145 ) ;
#73 = ORIENTED_EDGE ( 'NONE', *, *, #147, .T. ) ;
#74 = CARTESIAN_POINT ( 'NONE',  ( 0.0000000000000000000, 0.0000000000000000000, 12.00000000000000200 ) ) ;
#75 = DIRECTION ( 'NONE',  ( 1.000000000000000000, 0.0000000000000000000, 0.0000000000000000000 ) ) ;
#76 = ORIENTED_EDGE ( 'NONE', *, *, #157, .T. ) ;
#77 = ADVANCED_FACE ( 'NONE', ( #103 ), #248, .T. ) ;
#78 = AXIS2_PLACEMENT_3D ( 'NONE', #40, #172, #58 ) ;
#79 = CLOSED_SHELL ( 'NONE', ( #230, #116, #45, #60, #77, #138, #156, #211 ) ) ;
#80 = CARTESIAN_POINT ( 'NONE',  ( -0.09375000000000001400, 0.0000000000000000000, 12.00000000000000200 ) ) ;
#81 = VECTOR ( 'NONE', #159, 39.37007874015748100 ) ;
#82 = EDGE_LOOP ( 'NONE', ( #153, #225, #118, #165 ) ) ;
#83 = PRODUCT ( 'RPSS03-24', 'RPSS03-24', '', ( #139 ) ) ;
#84 = CARTESIAN_POINT ( 'NONE',  ( 0.0000000000000000000, 0.0000000000000000000, 0.0000000000000000000 ) ) ;
#85 = DIRECTION ( 'NONE',  ( -0.0000000000000000000, -0.0000000000000000000, 1.000000000000000000 ) ) ;
#86 = AXIS2_PLACEMENT_3D ( 'NONE', #237, #123, #8 ) ;
#87 =( NAMED_UNIT ( * ) PLANE_ANGLE_UNIT ( ) SI_UNIT ( $, .RADIAN. ) );
#88 = CARTESIAN_POINT ( 'NONE',  ( 0.0000000000000000000, 0.0000000000000000000, 12.00000000000000200 ) ) ;
#89 = CARTESIAN_POINT ( 'NONE',  ( -0.09375000000000001400, 0.0000000000000000000, 11.98000000000000800 ) ) ;
#90 = FACE_OUTER_BOUND ( 'NONE', #223, .T. ) ;
#91 = CONICAL_SURFACE ( 'NONE', #150, 0.09375000000000001400, 0.7853981633973927700 ) ;
#92 = MANIFOLD_SOLID_BREP ( 'Chamfer1', #79 ) ;
#93 = AXIS2_PLACEMENT_3D ( 'NONE', #224, #111, #247 ) ;
#94 = LENGTH_MEASURE_WITH_UNIT ( LENGTH_MEASURE( 0.02539999999999999900 ), #52 );
#95 = LINE ( 'NONE', #226, #55 ) ;
#96 = DIRECTION ( 'NONE',  ( -0.0000000000000000000, -0.0000000000000000000, -1.000000000000000000 ) ) ;
#97 = FACE_OUTER_BOUND ( 'NONE', #24, .T. ) ;
#98 = DIRECTION ( 'NONE',  ( 1.000000000000000000, 0.0000000000000000000, -0.0000000000000000000 ) ) ;
#99 = CARTESIAN_POINT ( 'NONE',  ( 0.0000000000000000000, 0.0000000000000000000, -11.97999999999998100 ) ) ;
#100 = AXIS2_PLACEMENT_3D ( 'NONE', #160, #235, #28 ) ;
#101 = VECTOR ( 'NONE', #213, 39.37007874015748100 ) ;
#102 = DIMENSIONAL_EXPONENTS ( 1.000000000000000000, 0.0000000000000000000, 0.0000000000000000000, 0.0000000000000000000, 0.0000000000000000000, 0.0000000000000000000, 0.0000000000000000000 ) ;
#103 = FACE_OUTER_BOUND ( 'NONE', #3, .T. ) ;
#104 = CARTESIAN_POINT ( 'NONE',  ( 0.07375000000000844800, 1.025641694285960100E-017, 12.00000000000000200 ) ) ;
#105 = FILL_AREA_STYLE_COLOUR ( '', #204 ) ;
#106 = CARTESIAN_POINT ( 'NONE',  ( 0.0000000000000000000, 0.0000000000000000000, -11.97999999999998100 ) ) ;
#107 = DIRECTION ( 'NONE',  ( 1.000000000000000000, 0.0000000000000000000, 0.0000000000000000000 ) ) ;
#108 = EDGE_CURVE ( 'NONE', #218, #220, #95, .T. ) ;
#109 = UNCERTAINTY_MEASURE_WITH_UNIT (LENGTH_MEASURE( 1.000000000000000100E-005 ), #199, 'distance_accuracy_value', 'NONE');
#110 = AXIS2_PLACEMENT_3D ( 'NONE', #48, #61, #197 ) ;
#111 = DIRECTION ( 'NONE',  ( 0.0000000000000000000, 0.0000000000000000000, 1.000000000000000000 ) ) ;
#112 = DIRECTION ( 'NONE',  ( -1.000000000000000000, 0.0000000000000000000, 0.0000000000000000000 ) ) ;
#113 = FILL_AREA_STYLE ('',( #11 ) ) ;
#114 = DIRECTION ( 'NONE',  ( -0.0000000000000000000, -0.0000000000000000000, 1.000000000000000000 ) ) ;
#115 = ORIENTED_EDGE ( 'NONE', *, *, #117, .F. ) ;
#116 = ADVANCED_FACE ( 'NONE', ( #90 ), #194, .T. ) ;
#117 = EDGE_CURVE ( 'NONE', #34, #21, #244, .T. ) ;
#118 = ORIENTED_EDGE ( 'NONE', *, *, #147, .F. ) ;
#119 = ORIENTED_EDGE ( 'NONE', *, *, #245, .F. ) ;
#120 = PRODUCT_DEFINITION_CONTEXT ( 'detailed design', #27, 'design' ) ;
#121 = DIRECTION ( 'NONE',  ( 0.0000000000000000000, 0.0000000000000000000, 1.000000000000000000 ) ) ;
#122 = DIRECTION ( 'NONE',  ( -0.0000000000000000000, -0.0000000000000000000, -1.000000000000000000 ) ) ;
#123 = DIRECTION ( 'NONE',  ( 0.0000000000000000000, 0.0000000000000000000, -1.000000000000000000 ) ) ;
#124 = ORIENTED_EDGE ( 'NONE', *, *, #188, .T. ) ;
#125 = CARTESIAN_POINT ( 'NONE',  ( 0.0000000000000000000, 0.0000000000000000000, 11.98000000000000800 ) ) ;
#126 = AXIS2_PLACEMENT_3D ( 'NONE', #186, #67, #203 ) ;
#127 = ORIENTED_EDGE ( 'NONE', *, *, #195, .T. ) ;
#128 = EDGE_LOOP ( 'NONE', ( #70, #137, #25, #221 ) ) ;
#129 = EDGE_CURVE ( 'NONE', #181, #205, #151, .T. ) ;
#130 = SHAPE_DEFINITION_REPRESENTATION ( #13, #155 ) ;
#131 = CARTESIAN_POINT ( 'NONE',  ( -0.07374999999998221900, 1.025641694285799600E-017, -12.00000000000000200 ) ) ;
#132 = SURFACE_STYLE_USAGE ( .BOTH. , #249 ) ;
#133 = LINE ( 'NONE', #53, #81 ) ;
#134 = ORIENTED_EDGE ( 'NONE', *, *, #12, .T. ) ;
#135 = CARTESIAN_POINT ( 'NONE',  ( -0.07375000000000844800, 0.0000000000000000000, 12.00000000000000200 ) ) ;
#136 = AXIS2_PLACEMENT_3D ( 'NONE', #88, #217, #107 ) ;
#137 = ORIENTED_EDGE ( 'NONE', *, *, #12, .F. ) ;
#138 = ADVANCED_FACE ( 'NONE', ( #200 ), #143, .F. ) ;
#139 = PRODUCT_CONTEXT ( 'NONE', #10, 'mechanical' ) ;
#140 = CYLINDRICAL_SURFACE ( 'NONE', #33, 0.09375000000000001400 ) ;
#141 = CIRCLE ( 'NONE', #136, 0.07375000000000844800 ) ;
#142 = CARTESIAN_POINT ( 'NONE',  ( -0.09375000000000001400, 0.0000000000000000000, -11.97999999999998100 ) ) ;
#143 = PLANE ( 'NONE',  #162 ) ;
#144 = DIRECTION ( 'NONE',  ( 1.000000000000000000, 0.0000000000000000000, 0.0000000000000000000 ) ) ;
#145 = FILL_AREA_STYLE ('',( #105 ) ) ;
#146 = DIRECTION ( 'NONE',  ( 0.7071067811865082700, 0.0000000000000000000, 0.7071067811865867600 ) ) ;
#147 = EDGE_CURVE ( 'NONE', #205, #220, #149, .T. ) ;
#148 = FACE_OUTER_BOUND ( 'NONE', #37, .T. ) ;
#149 = CIRCLE ( 'NONE', #175, 0.09375000000000001400 ) ;
#150 = AXIS2_PLACEMENT_3D ( 'NONE', #106, #85, #215 ) ;
#151 = LINE ( 'NONE', #135, #101 ) ;
#152 = PRESENTATION_STYLE_ASSIGNMENT (( #163 ) ) ;
#153 = ORIENTED_EDGE ( 'NONE', *, *, #157, .F. ) ;
#154 =( CONVERSION_BASED_UNIT ( 'INCH', #14 ) LENGTH_UNIT ( ) NAMED_UNIT ( #102 ) );
#155 = ADVANCED_BREP_SHAPE_REPRESENTATION ( 'RPSS03-24', ( #92, #206 ), #59 ) ;
#156 = ADVANCED_FACE ( 'NONE', ( #97 ), #91, .T. ) ;
#157 = EDGE_CURVE ( 'NONE', #218, #181, #141, .T. ) ;
#158 = APPLICATION_PROTOCOL_DEFINITION ( 'draft international standard', 'automotive_design', 1998, #27 ) ;
#159 = DIRECTION ( 'NONE',  ( -0.0000000000000000000, -0.0000000000000000000, -1.000000000000000000 ) ) ;
#160 = CARTESIAN_POINT ( 'NONE',  ( 0.0000000000000000000, 0.0000000000000000000, 12.00000000000000200 ) ) ;
#161 = CARTESIAN_POINT ( 'NONE',  ( 0.0000000000000000000, 0.0000000000000000000, -11.97999999999998100 ) ) ;
#162 = AXIS2_PLACEMENT_3D ( 'NONE', #49, #182, #62 ) ;
#163 = SURFACE_STYLE_USAGE ( .BOTH. , #31 ) ;
#164 = LENGTH_MEASURE_WITH_UNIT ( LENGTH_MEASURE( 0.02539999999999999900 ), #64 );
#165 = ORIENTED_EDGE ( 'NONE', *, *, #129, .F. ) ;
#166 = PRODUCT_RELATED_PRODUCT_CATEGORY ( 'part', '', ( #83 ) ) ;
#167 = ORIENTED_EDGE ( 'NONE', *, *, #26, .F. ) ;
#168 = CONICAL_SURFACE ( 'NONE', #100, 0.07375000000000844800, 0.7853981633973927700 ) ;
#169 = EDGE_CURVE ( 'NONE', #34, #229, #47, .T. ) ;
#170 = ORIENTED_EDGE ( 'NONE', *, *, #117, .T. ) ;
#171 = ORIENTED_EDGE ( 'NONE', *, *, #207, .T. ) ;
#172 = DIRECTION ( 'NONE',  ( -0.0000000000000000000, -0.0000000000000000000, -1.000000000000000000 ) ) ;
#173 =( NAMED_UNIT ( * ) SI_UNIT ( $, .STERADIAN. ) SOLID_ANGLE_UNIT ( ) );
#174 = EDGE_LOOP ( 'NONE', ( #65, #170 ) ) ;
#175 = AXIS2_PLACEMENT_3D ( 'NONE', #125, #9, #144 ) ;
#176 = ORIENTED_EDGE ( 'NONE', *, *, #169, .T. ) ;
#177 = VERTEX_POINT ( 'NONE', #66 ) ;
#178 = DIRECTION ( 'NONE',  ( -0.0000000000000000000, -0.0000000000000000000, -1.000000000000000000 ) ) ;
#179 = LINE ( 'NONE', #80, #227 ) ;
#180 = PRODUCT_DEFINITION_FORMATION_WITH_SPECIFIED_SOURCE ( 'ANY', '', #83, .NOT_KNOWN. ) ;
#181 = VERTEX_POINT ( 'NONE', #30 ) ;
#182 = DIRECTION ( 'NONE',  ( 0.0000000000000000000, 0.0000000000000000000, 1.000000000000000000 ) ) ;
#183 = DIRECTION ( 'NONE',  ( 1.000000000000000000, 0.0000000000000000000, 0.0000000000000000000 ) ) ;
#184 = CARTESIAN_POINT ( 'NONE',  ( -0.09375000000000001400, 1.148106374200643900E-017, -11.97999999999998100 ) ) ;
#185 =( CONVERSION_BASED_UNIT ( 'INCH', #94 ) LENGTH_UNIT ( ) NAMED_UNIT ( #231 ) );
#186 = CARTESIAN_POINT ( 'NONE',  ( 0.0000000000000000000, 0.0000000000000000000, -11.97999999999998100 ) ) ;
#187 = ORIENTED_EDGE ( 'NONE', *, *, #219, .T. ) ;
#188 = EDGE_CURVE ( 'NONE', #177, #229, #1, .T. ) ;
#189 = DIRECTION ( 'NONE',  ( -0.0000000000000000000, -0.0000000000000000000, -1.000000000000000000 ) ) ;
#190 = COLOUR_RGB ( '',0.7921568627450980000, 0.8196078431372548800, 0.9333333333333333500 ) ;
#191 = DIRECTION ( 'NONE',  ( -1.000000000000000000, 0.0000000000000000000, 0.0000000000000000000 ) ) ;
#192 = FACE_OUTER_BOUND ( 'NONE', #128, .T. ) ;
#193 = PRODUCT_DEFINITION ( 'UNKNOWN', '', #180, #120 ) ;
#194 = CONICAL_SURFACE ( 'NONE', #210, 0.09375000000000001400, 0.7853981633973927700 ) ;
#195 = EDGE_CURVE ( 'NONE', #21, #177, #51, .T. ) ;
#196 = CIRCLE ( 'NONE', #78, 0.07374999999998221900 ) ;
#197 = DIRECTION ( 'NONE',  ( -1.000000000000000000, 0.0000000000000000000, 0.0000000000000000000 ) ) ;
#198 = UNCERTAINTY_MEASURE_WITH_UNIT (LENGTH_MEASURE( 1.000000000000000100E-005 ), #185, 'distance_accuracy_value', 'NONE');
#199 =( CONVERSION_BASED_UNIT ( 'INCH', #164 ) LENGTH_UNIT ( ) NAMED_UNIT ( #23 ) );
#200 = FACE_OUTER_BOUND ( 'NONE', #174, .T. ) ;
#201 = DIRECTION ( 'NONE',  ( -0.7071067811865082700, 8.659560562354452100E-017, 0.7071067811865867600 ) ) ;
#202 = AXIS2_PLACEMENT_3D ( 'NONE', #236, #122, #6 ) ;
#203 = DIRECTION ( 'NONE',  ( 1.000000000000000000, 0.0000000000000000000, 0.0000000000000000000 ) ) ;
#204 = COLOUR_RGB ( '',0.7921568627450980000, 0.8196078431372548800, 0.9333333333333333500 ) ;
#205 = VERTEX_POINT ( 'NONE', #89 ) ;
#206 = AXIS2_PLACEMENT_3D ( 'NONE', #84, #121, #4 ) ;
#207 = EDGE_CURVE ( 'NONE', #220, #177, #133, .T. ) ;
#208 = CARTESIAN_POINT ( 'NONE',  ( 0.0000000000000000000, 0.0000000000000000000, 12.00000000000000200 ) ) ;
#209 = DIRECTION ( 'NONE',  ( 0.0000000000000000000, 0.0000000000000000000, 1.000000000000000000 ) ) ;
#210 = AXIS2_PLACEMENT_3D ( 'NONE', #99, #114, #75 ) ;
#211 = ADVANCED_FACE ( 'NONE', ( #192 ), #46, .T. ) ;
#212 = EDGE_LOOP ( 'NONE', ( #35, #29, #187, #68 ) ) ;
#213 = DIRECTION ( 'NONE',  ( -0.7071067811865082700, 0.0000000000000000000, -0.7071067811865867600 ) ) ;
#214 = ORIENTED_EDGE ( 'NONE', *, *, #195, .F. ) ;
#215 = DIRECTION ( 'NONE',  ( 1.000000000000000000, 0.0000000000000000000, 0.0000000000000000000 ) ) ;
#216 =( NAMED_UNIT ( * ) SI_UNIT ( $, .STERADIAN. ) SOLID_ANGLE_UNIT ( ) );
#217 = DIRECTION ( 'NONE',  ( 0.0000000000000000000, 0.0000000000000000000, 1.000000000000000000 ) ) ;
#218 = VERTEX_POINT ( 'NONE', #104 ) ;
#219 = EDGE_CURVE ( 'NONE', #205, #229, #179, .T. ) ;
#220 = VERTEX_POINT ( 'NONE', #5 ) ;
#221 = ORIENTED_EDGE ( 'NONE', *, *, #232, .F. ) ;
#222 =( GEOMETRIC_REPRESENTATION_CONTEXT ( 3 ) GLOBAL_UNCERTAINTY_ASSIGNED_CONTEXT ( ( #63 ) ) GLOBAL_UNIT_ASSIGNED_CONTEXT ( ( #154, #43, #173 ) ) REPRESENTATION_CONTEXT ( 'NONE', 'WORKASPACE' ) );
#223 = EDGE_LOOP ( 'NONE', ( #115, #176, #69, #214 ) ) ;
#224 = CARTESIAN_POINT ( 'NONE',  ( 0.0000000000000000000, 0.0000000000000000000, 12.00000000000000200 ) ) ;
#225 = ORIENTED_EDGE ( 'NONE', *, *, #108, .T. ) ;
#226 = CARTESIAN_POINT ( 'NONE',  ( 0.07375000000000844800, 9.031770143712765300E-018, 12.00000000000000200 ) ) ;
#227 = VECTOR ( 'NONE', #178, 39.37007874015748100 ) ;
#228 = DIRECTION ( 'NONE',  ( 0.7071067811865082700, 8.659560562354452100E-017, -0.7071067811865867600 ) ) ;
#229 = VERTEX_POINT ( 'NONE', #142 ) ;
#230 = ADVANCED_FACE ( 'NONE', ( #36 ), #168, .T. ) ;
#231 = DIMENSIONAL_EXPONENTS ( 1.000000000000000000, 0.0000000000000000000, 0.0000000000000000000, 0.0000000000000000000, 0.0000000000000000000, 0.0000000000000000000, 0.0000000000000000000 ) ;
#232 = EDGE_CURVE ( 'NONE', #220, #205, #42, .T. ) ;
#233 = PRESENTATION_STYLE_ASSIGNMENT (( #132 ) ) ;
#234 = VECTOR ( 'NONE', #146, 39.37007874015748100 ) ;
#235 = DIRECTION ( 'NONE',  ( 0.0000000000000000000, 0.0000000000000000000, -1.000000000000000000 ) ) ;
#236 = CARTESIAN_POINT ( 'NONE',  ( 0.0000000000000000000, 0.0000000000000000000, -12.00000000000000200 ) ) ;
#237 = CARTESIAN_POINT ( 'NONE',  ( 0.0000000000000000000, 0.0000000000000000000, 11.98000000000000800 ) ) ;
#238 = APPLICATION_PROTOCOL_DEFINITION ( 'draft international standard', 'automotive_design', 1998, #10 ) ;
#239 = CARTESIAN_POINT ( 'NONE',  ( 0.09375000000000001400, 0.0000000000000000000, -11.97999999999998100 ) ) ;
#240 = MECHANICAL_DESIGN_GEOMETRIC_PRESENTATION_REPRESENTATION (  '', ( #56 ), #222 ) ;
#241 = CYLINDRICAL_SURFACE ( 'NONE', #44, 0.09375000000000001400 ) ;
#242 = VECTOR ( 'NONE', #201, 39.37007874015748100 ) ;
#243 =( GEOMETRIC_REPRESENTATION_CONTEXT ( 3 ) GLOBAL_UNCERTAINTY_ASSIGNED_CONTEXT ( ( #198 ) ) GLOBAL_UNIT_ASSIGNED_CONTEXT ( ( #185, #32, #19 ) ) REPRESENTATION_CONTEXT ( 'NONE', 'WORKASPACE' ) );
#244 = CIRCLE ( 'NONE', #202, 0.07374999999998221900 ) ;
#245 = EDGE_CURVE ( 'NONE', #229, #177, #22, .T. ) ;
#246 = FACE_OUTER_BOUND ( 'NONE', #212, .T. ) ;
#247 = DIRECTION ( 'NONE',  ( 1.000000000000000000, 0.0000000000000000000, 0.0000000000000000000 ) ) ;
#248 = PLANE ( 'NONE',  #15 ) ;
#249 = SURFACE_SIDE_STYLE ('',( #41 ) ) ;
ENDSEC;
END-ISO-10303-21;
