ISO-10303-21;
HEADER;
FILE_DESCRIPTION (( 'STEP AP214' ),
    '1' );
FILE_NAME ('RPSS03-3.step',
    '2017-08-09T17:41:54',
    ( '' ),
    ( '' ),
    'SwSTEP 2.0',
    'SolidWorks 2017',
    '' );
FILE_SCHEMA (( 'AUTOMOTIVE_DESIGN' ));
ENDSEC;

DATA;
#1 = ORIENTED_EDGE ( 'NONE', *, *, #165, .T. ) ;
#2 = EDGE_CURVE ( 'NONE', #243, #246, #114, .T. ) ;
#3 = LENGTH_MEASURE_WITH_UNIT ( LENGTH_MEASURE( 0.02539999999999999900 ), #240 );
#4 = CYLINDRICAL_SURFACE ( 'NONE', #40, 0.09375000000000001400 ) ;
#5 = SURFACE_SIDE_STYLE ('',( #75 ) ) ;
#6 = CARTESIAN_POINT ( 'NONE',  ( -0.07375000000000134200, 0.0000000000000000000, 1.500000000000000200 ) ) ;
#7 = DIRECTION ( 'NONE',  ( 1.000000000000000000, 0.0000000000000000000, 0.0000000000000000000 ) ) ;
#8 = DIRECTION ( 'NONE',  ( 0.7071067811865469100, 8.659560562354925500E-017, -0.7071067811865481300 ) ) ;
#9 = CARTESIAN_POINT ( 'NONE',  ( 0.0000000000000000000, 0.0000000000000000000, 1.500000000000000200 ) ) ;
#10 = ORIENTED_EDGE ( 'NONE', *, *, #144, .T. ) ;
#11 = CIRCLE ( 'NONE', #81, 0.09375000000000001400 ) ;
#12 = CARTESIAN_POINT ( 'NONE',  ( 0.0000000000000000000, 0.0000000000000000000, -1.479999999999998200 ) ) ;
#13 = DIRECTION ( 'NONE',  ( 1.000000000000000000, 0.0000000000000000000, 0.0000000000000000000 ) ) ;
#14 = MANIFOLD_SOLID_BREP ( 'Chamfer1', #63 ) ;
#15 = AXIS2_PLACEMENT_3D ( 'NONE', #52, #172, #73 ) ;
#16 =( NAMED_UNIT ( * ) PLANE_ANGLE_UNIT ( ) SI_UNIT ( $, .RADIAN. ) );
#17 =( NAMED_UNIT ( * ) SI_UNIT ( $, .STERADIAN. ) SOLID_ANGLE_UNIT ( ) );
#18 = ORIENTED_EDGE ( 'NONE', *, *, #20, .T. ) ;
#19 = ADVANCED_FACE ( 'NONE', ( #241 ), #44, .F. ) ;
#20 = EDGE_CURVE ( 'NONE', #136, #71, #219, .T. ) ;
#21 = ORIENTED_EDGE ( 'NONE', *, *, #127, .T. ) ;
#22 = PRODUCT_DEFINITION_CONTEXT ( 'detailed design', #58, 'design' ) ;
#23 = LENGTH_MEASURE_WITH_UNIT ( LENGTH_MEASURE( 0.02539999999999999900 ), #109 );
#24 = DIMENSIONAL_EXPONENTS ( 1.000000000000000000, 0.0000000000000000000, 0.0000000000000000000, 0.0000000000000000000, 0.0000000000000000000, 0.0000000000000000000, 0.0000000000000000000 ) ;
#25 = ORIENTED_EDGE ( 'NONE', *, *, #221, .T. ) ;
#26 =( LENGTH_UNIT ( ) NAMED_UNIT ( * ) SI_UNIT ( $, .METRE. ) );
#27 = AXIS2_PLACEMENT_3D ( 'NONE', #12, #53, #237 ) ;
#28 = CARTESIAN_POINT ( 'NONE',  ( 0.0000000000000000000, 0.0000000000000000000, -1.500000000000000200 ) ) ;
#29 = CARTESIAN_POINT ( 'NONE',  ( 0.0000000000000000000, 0.0000000000000000000, 1.500000000000000200 ) ) ;
#30 = PLANE ( 'NONE',  #249 ) ;
#31 = DIRECTION ( 'NONE',  ( 1.000000000000000000, 0.0000000000000000000, 0.0000000000000000000 ) ) ;
#32 = CARTESIAN_POINT ( 'NONE',  ( -0.09375000000000001400, 0.0000000000000000000, 1.480000000000001300 ) ) ;
#33 = EDGE_CURVE ( 'NONE', #243, #173, #119, .T. ) ;
#34 = VERTEX_POINT ( 'NONE', #169 ) ;
#35 = CARTESIAN_POINT ( 'NONE',  ( 0.0000000000000000000, 0.0000000000000000000, 1.500000000000000200 ) ) ;
#36 = DIRECTION ( 'NONE',  ( 1.000000000000000000, 0.0000000000000000000, 0.0000000000000000000 ) ) ;
#37 = EDGE_LOOP ( 'NONE', ( #152, #21, #80, #223 ) ) ;
#38 = VECTOR ( 'NONE', #234, 39.37007874015748100 ) ;
#39 = FACE_OUTER_BOUND ( 'NONE', #37, .T. ) ;
#40 = AXIS2_PLACEMENT_3D ( 'NONE', #118, #153, #171 ) ;
#41 = ORIENTED_EDGE ( 'NONE', *, *, #236, .T. ) ;
#42 = EDGE_CURVE ( 'NONE', #71, #136, #214, .T. ) ;
#43 = CIRCLE ( 'NONE', #67, 0.09375000000000001400 ) ;
#44 = PLANE ( 'NONE',  #149 ) ;
#45 = CIRCLE ( 'NONE', #188, 0.09375000000000001400 ) ;
#46 =( NAMED_UNIT ( * ) PLANE_ANGLE_UNIT ( ) SI_UNIT ( $, .RADIAN. ) );
#47 = DIRECTION ( 'NONE',  ( 1.000000000000000000, 0.0000000000000000000, 0.0000000000000000000 ) ) ;
#48 = CARTESIAN_POINT ( 'NONE',  ( 0.0000000000000000000, 0.0000000000000000000, 1.500000000000000200 ) ) ;
#49 = CARTESIAN_POINT ( 'NONE',  ( 0.07374999999999834500, 0.0000000000000000000, -1.500000000000000200 ) ) ;
#50 = CARTESIAN_POINT ( 'NONE',  ( -0.09375000000000001400, 1.148106374200643900E-017, -1.479999999999998200 ) ) ;
#51 = ORIENTED_EDGE ( 'NONE', *, *, #20, .F. ) ;
#52 = CARTESIAN_POINT ( 'NONE',  ( 0.0000000000000000000, 0.0000000000000000000, -1.479999999999998200 ) ) ;
#53 = DIRECTION ( 'NONE',  ( -0.0000000000000000000, -0.0000000000000000000, 1.000000000000000000 ) ) ;
#54 = CONICAL_SURFACE ( 'NONE', #93, 0.07375000000000134200, 0.7853981633974473900 ) ;
#55 = LINE ( 'NONE', #50, #61 ) ;
#56 = DIRECTION ( 'NONE',  ( -0.0000000000000000000, -0.0000000000000000000, 1.000000000000000000 ) ) ;
#57 = AXIS2_PLACEMENT_3D ( 'NONE', #88, #213, #72 ) ;
#58 = APPLICATION_CONTEXT ( 'automotive_design' ) ;
#59 = ORIENTED_EDGE ( 'NONE', *, *, #221, .F. ) ;
#60 = ADVANCED_FACE ( 'NONE', ( #166 ), #100, .T. ) ;
#61 = VECTOR ( 'NONE', #212, 39.37007874015748100 ) ;
#62 = EDGE_CURVE ( 'NONE', #173, #147, #45, .T. ) ;
#63 = CLOSED_SHELL ( 'NONE', ( #78, #60, #162, #148, #142, #19, #220, #245 ) ) ;
#64 = DIMENSIONAL_EXPONENTS ( 1.000000000000000000, 0.0000000000000000000, 0.0000000000000000000, 0.0000000000000000000, 0.0000000000000000000, 0.0000000000000000000, 0.0000000000000000000 ) ;
#65 = VECTOR ( 'NONE', #116, 39.37007874015748100 ) ;
#66 = DIRECTION ( 'NONE',  ( 0.0000000000000000000, 0.0000000000000000000, 1.000000000000000000 ) ) ;
#67 = AXIS2_PLACEMENT_3D ( 'NONE', #238, #121, #13 ) ;
#68 = DIRECTION ( 'NONE',  ( 1.000000000000000000, 0.0000000000000000000, 0.0000000000000000000 ) ) ;
#69 = DIRECTION ( 'NONE',  ( -1.000000000000000000, 0.0000000000000000000, 0.0000000000000000000 ) ) ;
#70 = DIRECTION ( 'NONE',  ( 0.0000000000000000000, 0.0000000000000000000, 1.000000000000000000 ) ) ;
#71 = VERTEX_POINT ( 'NONE', #170 ) ;
#72 = DIRECTION ( 'NONE',  ( -1.000000000000000000, 0.0000000000000000000, 0.0000000000000000000 ) ) ;
#73 = DIRECTION ( 'NONE',  ( 1.000000000000000000, 0.0000000000000000000, 0.0000000000000000000 ) ) ;
#74 = AXIS2_PLACEMENT_3D ( 'NONE', #197, #66, #229 ) ;
#75 = SURFACE_STYLE_FILL_AREA ( #115 ) ;
#76 = DIRECTION ( 'NONE',  ( 0.0000000000000000000, 0.0000000000000000000, -1.000000000000000000 ) ) ;
#77 = FILL_AREA_STYLE_COLOUR ( '', #247 ) ;
#78 = ADVANCED_FACE ( 'NONE', ( #39 ), #103, .T. ) ;
#79 = UNCERTAINTY_MEASURE_WITH_UNIT (LENGTH_MEASURE( 1.000000000000000100E-005 ), #150, 'distance_accuracy_value', 'NONE');
#80 = ORIENTED_EDGE ( 'NONE', *, *, #62, .F. ) ;
#81 = AXIS2_PLACEMENT_3D ( 'NONE', #157, #56, #176 ) ;
#82 = ORIENTED_EDGE ( 'NONE', *, *, #155, .F. ) ;
#83 = STYLED_ITEM ( 'NONE', ( #96 ), #14 ) ;
#84 = LINE ( 'NONE', #156, #126 ) ;
#85 = DIRECTION ( 'NONE',  ( 0.0000000000000000000, 0.0000000000000000000, 1.000000000000000000 ) ) ;
#86 = DIRECTION ( 'NONE',  ( -0.0000000000000000000, -0.0000000000000000000, 1.000000000000000000 ) ) ;
#87 = DIRECTION ( 'NONE',  ( 0.0000000000000000000, 0.0000000000000000000, -1.000000000000000000 ) ) ;
#88 = CARTESIAN_POINT ( 'NONE',  ( 0.0000000000000000000, 0.0000000000000000000, 1.500000000000000200 ) ) ;
#89 = DIRECTION ( 'NONE',  ( 0.7071067811865421300, 0.0000000000000000000, 0.7071067811865530100 ) ) ;
#90 = ORIENTED_EDGE ( 'NONE', *, *, #193, .T. ) ;
#91 = CIRCLE ( 'NONE', #230, 0.07375000000000134200 ) ;
#92 = CARTESIAN_POINT ( 'NONE',  ( 0.07375000000000134200, 1.025641694285916500E-017, 1.500000000000000200 ) ) ;
#93 = AXIS2_PLACEMENT_3D ( 'NONE', #35, #76, #174 ) ;
#94 = SURFACE_SIDE_STYLE ('',( #183 ) ) ;
#95 = ORIENTED_EDGE ( 'NONE', *, *, #193, .F. ) ;
#96 = PRESENTATION_STYLE_ASSIGNMENT (( #131 ) ) ;
#97 = ORIENTED_EDGE ( 'NONE', *, *, #42, .F. ) ;
#98 = PRESENTATION_LAYER_ASSIGNMENT (  '', '', ( #83 ) ) ;
#99 = CONICAL_SURFACE ( 'NONE', #27, 0.09375000000000001400, 0.7853981633974407300 ) ;
#100 = CONICAL_SURFACE ( 'NONE', #175, 0.09375000000000001400, 0.7853981633974407300 ) ;
#101 = PRODUCT_DEFINITION_SHAPE ( 'NONE', 'NONE',  #209 ) ;
#102 = ORIENTED_EDGE ( 'NONE', *, *, #155, .T. ) ;
#103 = CONICAL_SURFACE ( 'NONE', #203, 0.07375000000000134200, 0.7853981633974473900 ) ;
#104 =( GEOMETRIC_REPRESENTATION_CONTEXT ( 3 ) GLOBAL_UNCERTAINTY_ASSIGNED_CONTEXT ( ( #112 ) ) GLOBAL_UNIT_ASSIGNED_CONTEXT ( ( #122, #16, #140 ) ) REPRESENTATION_CONTEXT ( 'NONE', 'WORKASPACE' ) );
#105 = EDGE_LOOP ( 'NONE', ( #95, #25, #182, #41 ) ) ;
#106 = CARTESIAN_POINT ( 'NONE',  ( -0.09375000000000001400, 0.0000000000000000000, 1.500000000000000200 ) ) ;
#107 = MECHANICAL_DESIGN_GEOMETRIC_PRESENTATION_REPRESENTATION (  '', ( #83 ), #113 ) ;
#108 = CARTESIAN_POINT ( 'NONE',  ( -0.07375000000000134200, 0.0000000000000000000, 1.500000000000000200 ) ) ;
#109 =( LENGTH_UNIT ( ) NAMED_UNIT ( * ) SI_UNIT ( $, .METRE. ) );
#110 = ORIENTED_EDGE ( 'NONE', *, *, #2, .T. ) ;
#111 = ORIENTED_EDGE ( 'NONE', *, *, #236, .F. ) ;
#112 = UNCERTAINTY_MEASURE_WITH_UNIT (LENGTH_MEASURE( 1.000000000000000100E-005 ), #122, 'distance_accuracy_value', 'NONE');
#113 =( GEOMETRIC_REPRESENTATION_CONTEXT ( 3 ) GLOBAL_UNCERTAINTY_ASSIGNED_CONTEXT ( ( #79 ) ) GLOBAL_UNIT_ASSIGNED_CONTEXT ( ( #150, #46, #168 ) ) REPRESENTATION_CONTEXT ( 'NONE', 'WORKASPACE' ) );
#114 = CIRCLE ( 'NONE', #74, 0.07375000000000134200 ) ;
#115 = FILL_AREA_STYLE ('',( #207 ) ) ;
#116 = DIRECTION ( 'NONE',  ( -0.7071067811865469100, 0.0000000000000000000, -0.7071067811865481300 ) ) ;
#117 = DIRECTION ( 'NONE',  ( -0.0000000000000000000, -0.0000000000000000000, -1.000000000000000000 ) ) ;
#118 = CARTESIAN_POINT ( 'NONE',  ( 0.0000000000000000000, 0.0000000000000000000, 1.500000000000000200 ) ) ;
#119 = LINE ( 'NONE', #6, #65 ) ;
#120 = EDGE_LOOP ( 'NONE', ( #110, #10 ) ) ;
#121 = DIRECTION ( 'NONE',  ( 0.0000000000000000000, 0.0000000000000000000, -1.000000000000000000 ) ) ;
#122 =( CONVERSION_BASED_UNIT ( 'INCH', #3 ) LENGTH_UNIT ( ) NAMED_UNIT ( #64 ) );
#123 = STYLED_ITEM ( 'NONE', ( #205 ), #154 ) ;
#124 =( NAMED_UNIT ( * ) PLANE_ANGLE_UNIT ( ) SI_UNIT ( $, .RADIAN. ) );
#125 = ORIENTED_EDGE ( 'NONE', *, *, #62, .T. ) ;
#126 = VECTOR ( 'NONE', #89, 39.37007874015748100 ) ;
#127 = EDGE_CURVE ( 'NONE', #246, #147, #202, .T. ) ;
#128 = ORIENTED_EDGE ( 'NONE', *, *, #33, .T. ) ;
#129 = FACE_OUTER_BOUND ( 'NONE', #235, .T. ) ;
#130 = VECTOR ( 'NONE', #8, 39.37007874015748100 ) ;
#131 = SURFACE_STYLE_USAGE ( .BOTH. , #5 ) ;
#132 = PRESENTATION_LAYER_ASSIGNMENT (  '', '', ( #123 ) ) ;
#133 = DIRECTION ( 'NONE',  ( 0.0000000000000000000, 0.0000000000000000000, -1.000000000000000000 ) ) ;
#134 = CARTESIAN_POINT ( 'NONE',  ( 0.07375000000000134200, 9.031770143711894800E-018, 1.500000000000000200 ) ) ;
#135 = DIRECTION ( 'NONE',  ( 0.0000000000000000000, 0.0000000000000000000, 1.000000000000000000 ) ) ;
#136 = VERTEX_POINT ( 'NONE', #49 ) ;
#137 = CARTESIAN_POINT ( 'NONE',  ( -0.09375000000000001400, 0.0000000000000000000, -1.479999999999998200 ) ) ;
#138 = CYLINDRICAL_SURFACE ( 'NONE', #57, 0.09375000000000001400 ) ;
#139 = AXIS2_PLACEMENT_3D ( 'NONE', #28, #151, #47 ) ;
#140 =( NAMED_UNIT ( * ) SI_UNIT ( $, .STERADIAN. ) SOLID_ANGLE_UNIT ( ) );
#141 = ORIENTED_EDGE ( 'NONE', *, *, #127, .F. ) ;
#142 = ADVANCED_FACE ( 'NONE', ( #184 ), #30, .T. ) ;
#143 = ORIENTED_EDGE ( 'NONE', *, *, #181, .T. ) ;
#144 = EDGE_CURVE ( 'NONE', #246, #243, #91, .T. ) ;
#145 = VECTOR ( 'NONE', #215, 39.37007874015748100 ) ;
#146 = MECHANICAL_DESIGN_GEOMETRIC_PRESENTATION_REPRESENTATION (  '', ( #123 ), #159 ) ;
#147 = VERTEX_POINT ( 'NONE', #233 ) ;
#148 = ADVANCED_FACE ( 'NONE', ( #248 ), #4, .T. ) ;
#149 = AXIS2_PLACEMENT_3D ( 'NONE', #189, #85, #208 ) ;
#150 =( CONVERSION_BASED_UNIT ( 'INCH', #222 ) LENGTH_UNIT ( ) NAMED_UNIT ( #226 ) );
#151 = DIRECTION ( 'NONE',  ( -0.0000000000000000000, -0.0000000000000000000, -1.000000000000000000 ) ) ;
#152 = ORIENTED_EDGE ( 'NONE', *, *, #144, .F. ) ;
#153 = DIRECTION ( 'NONE',  ( -0.0000000000000000000, -0.0000000000000000000, -1.000000000000000000 ) ) ;
#154 = ADVANCED_BREP_SHAPE_REPRESENTATION ( 'RPSS03-3', ( #14, #199 ), #104 ) ;
#155 = EDGE_CURVE ( 'NONE', #71, #217, #55, .T. ) ;
#156 = CARTESIAN_POINT ( 'NONE',  ( 0.09375000000000001400, 0.0000000000000000000, -1.479999999999998200 ) ) ;
#157 = CARTESIAN_POINT ( 'NONE',  ( 0.0000000000000000000, 0.0000000000000000000, -1.479999999999998200 ) ) ;
#158 = APPLICATION_PROTOCOL_DEFINITION ( 'draft international standard', 'automotive_design', 1998, #178 ) ;
#159 =( GEOMETRIC_REPRESENTATION_CONTEXT ( 3 ) GLOBAL_UNCERTAINTY_ASSIGNED_CONTEXT ( ( #200 ) ) GLOBAL_UNIT_ASSIGNED_CONTEXT ( ( #242, #124, #17 ) ) REPRESENTATION_CONTEXT ( 'NONE', 'WORKASPACE' ) );
#160 = PRODUCT_CONTEXT ( 'NONE', #178, 'mechanical' ) ;
#161 = ORIENTED_EDGE ( 'NONE', *, *, #181, .F. ) ;
#162 = ADVANCED_FACE ( 'NONE', ( #239 ), #138, .T. ) ;
#163 = COLOUR_RGB ( '',0.7921568627450980000, 0.8196078431372548800, 0.9333333333333333500 ) ;
#164 = AXIS2_PLACEMENT_3D ( 'NONE', #232, #117, #7 ) ;
#165 = EDGE_CURVE ( 'NONE', #34, #217, #187, .T. ) ;
#166 = FACE_OUTER_BOUND ( 'NONE', #192, .T. ) ;
#167 = ORIENTED_EDGE ( 'NONE', *, *, #42, .T. ) ;
#168 =( NAMED_UNIT ( * ) SI_UNIT ( $, .STERADIAN. ) SOLID_ANGLE_UNIT ( ) );
#169 = CARTESIAN_POINT ( 'NONE',  ( 0.09375000000000001400, 1.148106374200643400E-017, -1.479999999999998200 ) ) ;
#170 = CARTESIAN_POINT ( 'NONE',  ( -0.07374999999999834500, 1.025641694285898300E-017, -1.500000000000000200 ) ) ;
#171 = DIRECTION ( 'NONE',  ( -1.000000000000000000, 0.0000000000000000000, 0.0000000000000000000 ) ) ;
#172 = DIRECTION ( 'NONE',  ( -0.0000000000000000000, -0.0000000000000000000, 1.000000000000000000 ) ) ;
#173 = VERTEX_POINT ( 'NONE', #32 ) ;
#174 = DIRECTION ( 'NONE',  ( -1.000000000000000000, 0.0000000000000000000, 0.0000000000000000000 ) ) ;
#175 = AXIS2_PLACEMENT_3D ( 'NONE', #231, #86, #68 ) ;
#176 = DIRECTION ( 'NONE',  ( 1.000000000000000000, 0.0000000000000000000, 0.0000000000000000000 ) ) ;
#177 = LINE ( 'NONE', #106, #38 ) ;
#178 = APPLICATION_CONTEXT ( 'automotive_design' ) ;
#179 = APPLICATION_PROTOCOL_DEFINITION ( 'draft international standard', 'automotive_design', 1998, #58 ) ;
#180 = PRODUCT ( 'RPSS03-3', 'RPSS03-3', '', ( #160 ) ) ;
#181 = EDGE_CURVE ( 'NONE', #136, #34, #84, .T. ) ;
#182 = ORIENTED_EDGE ( 'NONE', *, *, #206, .T. ) ;
#183 = SURFACE_STYLE_FILL_AREA ( #198 ) ;
#184 = FACE_OUTER_BOUND ( 'NONE', #120, .T. ) ;
#185 = EDGE_LOOP ( 'NONE', ( #18, #167 ) ) ;
#186 = EDGE_LOOP ( 'NONE', ( #141, #227, #128, #59 ) ) ;
#187 = CIRCLE ( 'NONE', #15, 0.09375000000000001400 ) ;
#188 = AXIS2_PLACEMENT_3D ( 'NONE', #190, #87, #210 ) ;
#189 = CARTESIAN_POINT ( 'NONE',  ( 0.0000000000000000000, 0.0000000000000000000, -1.500000000000000200 ) ) ;
#190 = CARTESIAN_POINT ( 'NONE',  ( 0.0000000000000000000, 0.0000000000000000000, 1.480000000000001300 ) ) ;
#191 = DIRECTION ( 'NONE',  ( 1.000000000000000000, 0.0000000000000000000, -0.0000000000000000000 ) ) ;
#192 = EDGE_LOOP ( 'NONE', ( #97, #102, #204, #161 ) ) ;
#193 = EDGE_CURVE ( 'NONE', #147, #34, #195, .T. ) ;
#194 = CARTESIAN_POINT ( 'NONE',  ( 0.09375000000000001400, 1.148106374200643400E-017, 1.500000000000000200 ) ) ;
#195 = LINE ( 'NONE', #194, #145 ) ;
#196 = CARTESIAN_POINT ( 'NONE',  ( 0.0000000000000000000, 0.0000000000000000000, 0.0000000000000000000 ) ) ;
#197 = CARTESIAN_POINT ( 'NONE',  ( 0.0000000000000000000, 0.0000000000000000000, 1.500000000000000200 ) ) ;
#198 = FILL_AREA_STYLE ('',( #77 ) ) ;
#199 = AXIS2_PLACEMENT_3D ( 'NONE', #196, #216, #36 ) ;
#200 = UNCERTAINTY_MEASURE_WITH_UNIT (LENGTH_MEASURE( 1.000000000000000100E-005 ), #242, 'distance_accuracy_value', 'NONE');
#201 = ORIENTED_EDGE ( 'NONE', *, *, #206, .F. ) ;
#202 = LINE ( 'NONE', #134, #130 ) ;
#203 = AXIS2_PLACEMENT_3D ( 'NONE', #48, #133, #69 ) ;
#204 = ORIENTED_EDGE ( 'NONE', *, *, #165, .F. ) ;
#205 = PRESENTATION_STYLE_ASSIGNMENT (( #218 ) ) ;
#206 = EDGE_CURVE ( 'NONE', #173, #217, #177, .T. ) ;
#207 = FILL_AREA_STYLE_COLOUR ( '', #163 ) ;
#208 = DIRECTION ( 'NONE',  ( 1.000000000000000000, 0.0000000000000000000, -0.0000000000000000000 ) ) ;
#209 = PRODUCT_DEFINITION ( 'UNKNOWN', '', #224, #22 ) ;
#210 = DIRECTION ( 'NONE',  ( 1.000000000000000000, 0.0000000000000000000, 0.0000000000000000000 ) ) ;
#211 = EDGE_LOOP ( 'NONE', ( #125, #90, #1, #201 ) ) ;
#212 = DIRECTION ( 'NONE',  ( -0.7071067811865421300, 8.659560562354867500E-017, 0.7071067811865530100 ) ) ;
#213 = DIRECTION ( 'NONE',  ( -0.0000000000000000000, -0.0000000000000000000, -1.000000000000000000 ) ) ;
#214 = CIRCLE ( 'NONE', #164, 0.07374999999999834500 ) ;
#215 = DIRECTION ( 'NONE',  ( -0.0000000000000000000, -0.0000000000000000000, -1.000000000000000000 ) ) ;
#216 = DIRECTION ( 'NONE',  ( 0.0000000000000000000, 0.0000000000000000000, 1.000000000000000000 ) ) ;
#217 = VERTEX_POINT ( 'NONE', #137 ) ;
#218 = SURFACE_STYLE_USAGE ( .BOTH. , #94 ) ;
#219 = CIRCLE ( 'NONE', #139, 0.07374999999999834500 ) ;
#220 = ADVANCED_FACE ( 'NONE', ( #129 ), #99, .T. ) ;
#221 = EDGE_CURVE ( 'NONE', #147, #173, #43, .T. ) ;
#222 = LENGTH_MEASURE_WITH_UNIT ( LENGTH_MEASURE( 0.02539999999999999900 ), #26 );
#223 = ORIENTED_EDGE ( 'NONE', *, *, #33, .F. ) ;
#224 = PRODUCT_DEFINITION_FORMATION_WITH_SPECIFIED_SOURCE ( 'ANY', '', #180, .NOT_KNOWN. ) ;
#225 = SHAPE_DEFINITION_REPRESENTATION ( #101, #154 ) ;
#226 = DIMENSIONAL_EXPONENTS ( 1.000000000000000000, 0.0000000000000000000, 0.0000000000000000000, 0.0000000000000000000, 0.0000000000000000000, 0.0000000000000000000, 0.0000000000000000000 ) ;
#227 = ORIENTED_EDGE ( 'NONE', *, *, #2, .F. ) ;
#228 = FACE_OUTER_BOUND ( 'NONE', #186, .T. ) ;
#229 = DIRECTION ( 'NONE',  ( 1.000000000000000000, 0.0000000000000000000, 0.0000000000000000000 ) ) ;
#230 = AXIS2_PLACEMENT_3D ( 'NONE', #9, #135, #31 ) ;
#231 = CARTESIAN_POINT ( 'NONE',  ( 0.0000000000000000000, 0.0000000000000000000, -1.479999999999998200 ) ) ;
#232 = CARTESIAN_POINT ( 'NONE',  ( 0.0000000000000000000, 0.0000000000000000000, -1.500000000000000200 ) ) ;
#233 = CARTESIAN_POINT ( 'NONE',  ( 0.09375000000000001400, 1.148106374200643400E-017, 1.480000000000001300 ) ) ;
#234 = DIRECTION ( 'NONE',  ( -0.0000000000000000000, -0.0000000000000000000, -1.000000000000000000 ) ) ;
#235 = EDGE_LOOP ( 'NONE', ( #82, #51, #143, #111 ) ) ;
#236 = EDGE_CURVE ( 'NONE', #217, #34, #11, .T. ) ;
#237 = DIRECTION ( 'NONE',  ( 1.000000000000000000, 0.0000000000000000000, 0.0000000000000000000 ) ) ;
#238 = CARTESIAN_POINT ( 'NONE',  ( 0.0000000000000000000, 0.0000000000000000000, 1.480000000000001300 ) ) ;
#239 = FACE_OUTER_BOUND ( 'NONE', #211, .T. ) ;
#240 =( LENGTH_UNIT ( ) NAMED_UNIT ( * ) SI_UNIT ( $, .METRE. ) );
#241 = FACE_OUTER_BOUND ( 'NONE', #185, .T. ) ;
#242 =( CONVERSION_BASED_UNIT ( 'INCH', #23 ) LENGTH_UNIT ( ) NAMED_UNIT ( #24 ) );
#243 = VERTEX_POINT ( 'NONE', #108 ) ;
#244 = PRODUCT_RELATED_PRODUCT_CATEGORY ( 'part', '', ( #180 ) ) ;
#245 = ADVANCED_FACE ( 'NONE', ( #228 ), #54, .T. ) ;
#246 = VERTEX_POINT ( 'NONE', #92 ) ;
#247 = COLOUR_RGB ( '',0.7921568627450980000, 0.8196078431372548800, 0.9333333333333333500 ) ;
#248 = FACE_OUTER_BOUND ( 'NONE', #105, .T. ) ;
#249 = AXIS2_PLACEMENT_3D ( 'NONE', #29, #70, #191 ) ;
ENDSEC;
END-ISO-10303-21;
