ISO-10303-21;
HEADER;
FILE_DESCRIPTION (( 'STEP AP214' ),
    '1' );
FILE_NAME ('RPSS03-36.step',
    '2017-08-09T17:43:00',
    ( '' ),
    ( '' ),
    'SwSTEP 2.0',
    'SolidWorks 2017',
    '' );
FILE_SCHEMA (( 'AUTOMOTIVE_DESIGN' ));
ENDSEC;

DATA;
#1 = LINE ( 'NONE', #48, #154 ) ;
#2 = AXIS2_PLACEMENT_3D ( 'NONE', #68, #201, #86 ) ;
#3 = ORIENTED_EDGE ( 'NONE', *, *, #134, .F. ) ;
#4 = DIRECTION ( 'NONE',  ( 1.000000000000000000, 0.0000000000000000000, 0.0000000000000000000 ) ) ;
#5 = DIRECTION ( 'NONE',  ( 1.000000000000000000, 0.0000000000000000000, 0.0000000000000000000 ) ) ;
#6 = PLANE ( 'NONE',  #30 ) ;
#7 =( LENGTH_UNIT ( ) NAMED_UNIT ( * ) SI_UNIT ( $, .METRE. ) );
#8 = DIRECTION ( 'NONE',  ( 1.000000000000000000, 0.0000000000000000000, -0.0000000000000000000 ) ) ;
#9 = CARTESIAN_POINT ( 'NONE',  ( -0.07375000000001065400, 1.025641694285973500E-017, -18.00000000000000000 ) ) ;
#10 = DIRECTION ( 'NONE',  ( 0.7071067811864693000, 0.0000000000000000000, 0.7071067811866256200 ) ) ;
#11 = COLOUR_RGB ( '',0.7921568627450980000, 0.8196078431372548800, 0.9333333333333333500 ) ;
#12 = CARTESIAN_POINT ( 'NONE',  ( 0.0000000000000000000, 0.0000000000000000000, 18.00000000000000000 ) ) ;
#13 = DIRECTION ( 'NONE',  ( -0.0000000000000000000, -0.0000000000000000000, -1.000000000000000000 ) ) ;
#14 = SURFACE_STYLE_USAGE ( .BOTH. , #130 ) ;
#15 = EDGE_LOOP ( 'NONE', ( #214, #50, #34, #173 ) ) ;
#16 = EDGE_CURVE ( 'NONE', #237, #38, #67, .T. ) ;
#17 = VECTOR ( 'NONE', #61, 39.37007874015748100 ) ;
#18 = AXIS2_PLACEMENT_3D ( 'NONE', #143, #127, #184 ) ;
#19 = ORIENTED_EDGE ( 'NONE', *, *, #134, .T. ) ;
#20 = VERTEX_POINT ( 'NONE', #232 ) ;
#21 = DIRECTION ( 'NONE',  ( 0.0000000000000000000, 0.0000000000000000000, -1.000000000000000000 ) ) ;
#22 = FILL_AREA_STYLE_COLOUR ( '', #11 ) ;
#23 = DIRECTION ( 'NONE',  ( 0.0000000000000000000, 0.0000000000000000000, 1.000000000000000000 ) ) ;
#24 = EDGE_CURVE ( 'NONE', #74, #237, #119, .T. ) ;
#25 = ORIENTED_EDGE ( 'NONE', *, *, #144, .F. ) ;
#26 =( NAMED_UNIT ( * ) PLANE_ANGLE_UNIT ( ) SI_UNIT ( $, .RADIAN. ) );
#27 = DIRECTION ( 'NONE',  ( -0.0000000000000000000, -0.0000000000000000000, -1.000000000000000000 ) ) ;
#28 =( LENGTH_UNIT ( ) NAMED_UNIT ( * ) SI_UNIT ( $, .METRE. ) );
#29 =( CONVERSION_BASED_UNIT ( 'INCH', #53 ) LENGTH_UNIT ( ) NAMED_UNIT ( #51 ) );
#30 = AXIS2_PLACEMENT_3D ( 'NONE', #198, #125, #8 ) ;
#31 = ADVANCED_FACE ( 'NONE', ( #213 ), #157, .T. ) ;
#32 = PRODUCT_DEFINITION_CONTEXT ( 'detailed design', #224, 'design' ) ;
#33 = CONICAL_SURFACE ( 'NONE', #243, 0.07374999999999754000, 0.7853981633974470600 ) ;
#34 = ORIENTED_EDGE ( 'NONE', *, *, #104, .T. ) ;
#35 = PRODUCT ( 'RPSS03-36', 'RPSS03-36', '', ( #89 ) ) ;
#36 = UNCERTAINTY_MEASURE_WITH_UNIT (LENGTH_MEASURE( 1.000000000000000100E-005 ), #142, 'distance_accuracy_value', 'NONE');
#37 = CONICAL_SURFACE ( 'NONE', #18, 0.09375000000000001400, 0.7853981633973378100 ) ;
#38 = VERTEX_POINT ( 'NONE', #62 ) ;
#39 = EDGE_CURVE ( 'NONE', #38, #76, #116, .T. ) ;
#40 = LINE ( 'NONE', #146, #190 ) ;
#41 = AXIS2_PLACEMENT_3D ( 'NONE', #200, #85, #221 ) ;
#42 = ORIENTED_EDGE ( 'NONE', *, *, #93, .T. ) ;
#43 = CARTESIAN_POINT ( 'NONE',  ( -0.09375000000000001400, 1.148106374200643900E-017, -17.98000000000000800 ) ) ;
#44 = DIRECTION ( 'NONE',  ( -0.0000000000000000000, -0.0000000000000000000, -1.000000000000000000 ) ) ;
#45 =( NAMED_UNIT ( * ) PLANE_ANGLE_UNIT ( ) SI_UNIT ( $, .RADIAN. ) );
#46 =( NAMED_UNIT ( * ) SI_UNIT ( $, .STERADIAN. ) SOLID_ANGLE_UNIT ( ) );
#47 = CIRCLE ( 'NONE', #82, 0.09375000000000001400 ) ;
#48 = CARTESIAN_POINT ( 'NONE',  ( -0.07374999999999754000, 0.0000000000000000000, 18.00000000000000000 ) ) ;
#49 = ADVANCED_FACE ( 'NONE', ( #209 ), #249, .T. ) ;
#50 = ORIENTED_EDGE ( 'NONE', *, *, #52, .F. ) ;
#51 = DIMENSIONAL_EXPONENTS ( 1.000000000000000000, 0.0000000000000000000, 0.0000000000000000000, 0.0000000000000000000, 0.0000000000000000000, 0.0000000000000000000, 0.0000000000000000000 ) ;
#52 = EDGE_CURVE ( 'NONE', #245, #56, #54, .T. ) ;
#53 = LENGTH_MEASURE_WITH_UNIT ( LENGTH_MEASURE( 0.02539999999999999900 ), #148 );
#54 = CIRCLE ( 'NONE', #187, 0.07374999999999754000 ) ;
#55 = VECTOR ( 'NONE', #65, 39.37007874015748900 ) ;
#56 = VERTEX_POINT ( 'NONE', #195 ) ;
#57 = SURFACE_STYLE_FILL_AREA ( #102 ) ;
#58 = PRODUCT_RELATED_PRODUCT_CATEGORY ( 'part', '', ( #35 ) ) ;
#59 = MANIFOLD_SOLID_BREP ( 'Chamfer1', #155 ) ;
#60 = ORIENTED_EDGE ( 'NONE', *, *, #172, .F. ) ;
#61 = DIRECTION ( 'NONE',  ( -0.0000000000000000000, -0.0000000000000000000, -1.000000000000000000 ) ) ;
#62 = CARTESIAN_POINT ( 'NONE',  ( -0.09375000000000001400, 0.0000000000000000000, -17.98000000000000800 ) ) ;
#63 = CARTESIAN_POINT ( 'NONE',  ( 0.09375000000000001400, 1.148106374200643900E-017, -17.98000000000000800 ) ) ;
#64 = EDGE_CURVE ( 'NONE', #20, #133, #174, .T. ) ;
#65 = DIRECTION ( 'NONE',  ( 0.7071067811865465700, 8.659560562354921800E-017, -0.7071067811865483500 ) ) ;
#66 = DIRECTION ( 'NONE',  ( -0.7071067811864693000, 8.659560562353975100E-017, 0.7071067811866256200 ) ) ;
#67 = LINE ( 'NONE', #81, #17 ) ;
#68 = CARTESIAN_POINT ( 'NONE',  ( 0.0000000000000000000, 0.0000000000000000000, -17.98000000000000800 ) ) ;
#69 = DIRECTION ( 'NONE',  ( -1.000000000000000000, 0.0000000000000000000, 0.0000000000000000000 ) ) ;
#70 = DIRECTION ( 'NONE',  ( 0.0000000000000000000, 0.0000000000000000000, 1.000000000000000000 ) ) ;
#71 = ORIENTED_EDGE ( 'NONE', *, *, #156, .T. ) ;
#72 = AXIS2_PLACEMENT_3D ( 'NONE', #123, #23, #163 ) ;
#73 = LENGTH_MEASURE_WITH_UNIT ( LENGTH_MEASURE( 0.02539999999999999900 ), #28 );
#74 = VERTEX_POINT ( 'NONE', #162 ) ;
#75 = PRODUCT_DEFINITION_FORMATION_WITH_SPECIFIED_SOURCE ( 'ANY', '', #35, .NOT_KNOWN. ) ;
#76 = VERTEX_POINT ( 'NONE', #63 ) ;
#77 = SURFACE_STYLE_FILL_AREA ( #242 ) ;
#78 = EDGE_CURVE ( 'NONE', #56, #74, #109, .T. ) ;
#79 = ORIENTED_EDGE ( 'NONE', *, *, #156, .F. ) ;
#80 = UNCERTAINTY_MEASURE_WITH_UNIT (LENGTH_MEASURE( 1.000000000000000100E-005 ), #167, 'distance_accuracy_value', 'NONE');
#81 = CARTESIAN_POINT ( 'NONE',  ( -0.09375000000000001400, 0.0000000000000000000, 18.00000000000000000 ) ) ;
#82 = AXIS2_PLACEMENT_3D ( 'NONE', #218, #103, #239 ) ;
#83 = ORIENTED_EDGE ( 'NONE', *, *, #248, .F. ) ;
#84 = DIRECTION ( 'NONE',  ( 0.0000000000000000000, 0.0000000000000000000, 1.000000000000000000 ) ) ;
#85 = DIRECTION ( 'NONE',  ( 0.0000000000000000000, 0.0000000000000000000, 1.000000000000000000 ) ) ;
#86 = DIRECTION ( 'NONE',  ( 1.000000000000000000, 0.0000000000000000000, 0.0000000000000000000 ) ) ;
#87 = CARTESIAN_POINT ( 'NONE',  ( 0.09375000000000001400, 1.148106374200643900E-017, 18.00000000000000000 ) ) ;
#88 = PRODUCT_DEFINITION ( 'UNKNOWN', '', #75, #32 ) ;
#89 = PRODUCT_CONTEXT ( 'NONE', #223, 'mechanical' ) ;
#90 = CIRCLE ( 'NONE', #2, 0.09375000000000001400 ) ;
#91 = DIMENSIONAL_EXPONENTS ( 1.000000000000000000, 0.0000000000000000000, 0.0000000000000000000, 0.0000000000000000000, 0.0000000000000000000, 0.0000000000000000000, 0.0000000000000000000 ) ;
#92 = ORIENTED_EDGE ( 'NONE', *, *, #39, .T. ) ;
#93 = EDGE_CURVE ( 'NONE', #133, #20, #210, .T. ) ;
#94 = SHAPE_DEFINITION_REPRESENTATION ( #176, #129 ) ;
#95 = VECTOR ( 'NONE', #66, 39.37007874015748900 ) ;
#96 = ORIENTED_EDGE ( 'NONE', *, *, #144, .T. ) ;
#97 = AXIS2_PLACEMENT_3D ( 'NONE', #147, #70, #205 ) ;
#98 = CIRCLE ( 'NONE', #41, 0.07374999999999754000 ) ;
#99 = ORIENTED_EDGE ( 'NONE', *, *, #16, .F. ) ;
#100 = DIRECTION ( 'NONE',  ( -1.000000000000000000, 0.0000000000000000000, 0.0000000000000000000 ) ) ;
#101 = DIRECTION ( 'NONE',  ( -0.0000000000000000000, -0.0000000000000000000, -1.000000000000000000 ) ) ;
#102 = FILL_AREA_STYLE ('',( #22 ) ) ;
#103 = DIRECTION ( 'NONE',  ( 0.0000000000000000000, 0.0000000000000000000, -1.000000000000000000 ) ) ;
#104 = EDGE_CURVE ( 'NONE', #245, #237, #1, .T. ) ;
#105 = DIRECTION ( 'NONE',  ( -0.0000000000000000000, -0.0000000000000000000, -1.000000000000000000 ) ) ;
#106 = CARTESIAN_POINT ( 'NONE',  ( 0.0000000000000000000, 0.0000000000000000000, 18.00000000000000000 ) ) ;
#107 = CARTESIAN_POINT ( 'NONE',  ( -0.07374999999999754000, 0.0000000000000000000, 18.00000000000000000 ) ) ;
#108 = FILL_AREA_STYLE_COLOUR ( '', #230 ) ;
#109 = LINE ( 'NONE', #199, #55 ) ;
#110 = APPLICATION_PROTOCOL_DEFINITION ( 'draft international standard', 'automotive_design', 1998, #224 ) ;
#111 = DIRECTION ( 'NONE',  ( -0.7071067811865465700, 0.0000000000000000000, -0.7071067811865483500 ) ) ;
#112 = ORIENTED_EDGE ( 'NONE', *, *, #64, .T. ) ;
#113 = AXIS2_PLACEMENT_3D ( 'NONE', #228, #101, #235 ) ;
#114 = ADVANCED_FACE ( 'NONE', ( #158 ), #145, .T. ) ;
#115 = PRESENTATION_STYLE_ASSIGNMENT (( #14 ) ) ;
#116 = CIRCLE ( 'NONE', #212, 0.09375000000000001400 ) ;
#117 = ORIENTED_EDGE ( 'NONE', *, *, #93, .F. ) ;
#118 = EDGE_CURVE ( 'NONE', #237, #74, #47, .T. ) ;
#119 = CIRCLE ( 'NONE', #236, 0.09375000000000001400 ) ;
#120 = EDGE_LOOP ( 'NONE', ( #117, #96, #79, #60 ) ) ;
#121 = AXIS2_PLACEMENT_3D ( 'NONE', #220, #105, #240 ) ;
#122 = DIRECTION ( 'NONE',  ( -0.0000000000000000000, -0.0000000000000000000, 1.000000000000000000 ) ) ;
#123 = CARTESIAN_POINT ( 'NONE',  ( 0.0000000000000000000, 0.0000000000000000000, 18.00000000000000000 ) ) ;
#124 = SURFACE_STYLE_USAGE ( .BOTH. , #238 ) ;
#125 = DIRECTION ( 'NONE',  ( 0.0000000000000000000, 0.0000000000000000000, 1.000000000000000000 ) ) ;
#126 = ORIENTED_EDGE ( 'NONE', *, *, #52, .T. ) ;
#127 = DIRECTION ( 'NONE',  ( -0.0000000000000000000, -0.0000000000000000000, 1.000000000000000000 ) ) ;
#128 = DIRECTION ( 'NONE',  ( -1.000000000000000000, 0.0000000000000000000, 0.0000000000000000000 ) ) ;
#129 = ADVANCED_BREP_SHAPE_REPRESENTATION ( 'RPSS03-36', ( #59, #97 ), #229 ) ;
#130 = SURFACE_SIDE_STYLE ('',( #77 ) ) ;
#131 = ADVANCED_FACE ( 'NONE', ( #246 ), #6, .F. ) ;
#132 = VECTOR ( 'NONE', #13, 39.37007874015748100 ) ;
#133 = VERTEX_POINT ( 'NONE', #9 ) ;
#134 = EDGE_CURVE ( 'NONE', #56, #245, #98, .T. ) ;
#135 = LINE ( 'NONE', #87, #132 ) ;
#136 =( GEOMETRIC_REPRESENTATION_CONTEXT ( 3 ) GLOBAL_UNCERTAINTY_ASSIGNED_CONTEXT ( ( #36 ) ) GLOBAL_UNIT_ASSIGNED_CONTEXT ( ( #142, #26, #164 ) ) REPRESENTATION_CONTEXT ( 'NONE', 'WORKASPACE' ) );
#137 = ORIENTED_EDGE ( 'NONE', *, *, #78, .T. ) ;
#138 =( GEOMETRIC_REPRESENTATION_CONTEXT ( 3 ) GLOBAL_UNCERTAINTY_ASSIGNED_CONTEXT ( ( #175 ) ) GLOBAL_UNIT_ASSIGNED_CONTEXT ( ( #29, #168, #46 ) ) REPRESENTATION_CONTEXT ( 'NONE', 'WORKASPACE' ) );
#139 = FACE_OUTER_BOUND ( 'NONE', #191, .T. ) ;
#140 = CARTESIAN_POINT ( 'NONE',  ( 0.0000000000000000000, 0.0000000000000000000, 17.97999999999999700 ) ) ;
#141 = ORIENTED_EDGE ( 'NONE', *, *, #118, .F. ) ;
#142 =( CONVERSION_BASED_UNIT ( 'INCH', #192 ) LENGTH_UNIT ( ) NAMED_UNIT ( #171 ) );
#143 = CARTESIAN_POINT ( 'NONE',  ( 0.0000000000000000000, 0.0000000000000000000, -17.98000000000000800 ) ) ;
#144 = EDGE_CURVE ( 'NONE', #133, #38, #204, .T. ) ;
#145 = PLANE ( 'NONE',  #72 ) ;
#146 = CARTESIAN_POINT ( 'NONE',  ( 0.09375000000000001400, 0.0000000000000000000, -17.98000000000000800 ) ) ;
#147 = CARTESIAN_POINT ( 'NONE',  ( 0.0000000000000000000, 0.0000000000000000000, 0.0000000000000000000 ) ) ;
#148 =( LENGTH_UNIT ( ) NAMED_UNIT ( * ) SI_UNIT ( $, .METRE. ) );
#149 = FACE_OUTER_BOUND ( 'NONE', #170, .T. ) ;
#150 = ADVANCED_FACE ( 'NONE', ( #193 ), #37, .T. ) ;
#151 = MECHANICAL_DESIGN_GEOMETRIC_PRESENTATION_REPRESENTATION (  '', ( #177 ), #136 ) ;
#152 = EDGE_LOOP ( 'NONE', ( #83, #219, #208, #92 ) ) ;
#153 = MECHANICAL_DESIGN_GEOMETRIC_PRESENTATION_REPRESENTATION (  '', ( #179 ), #138 ) ;
#154 = VECTOR ( 'NONE', #111, 39.37007874015748900 ) ;
#155 = CLOSED_SHELL ( 'NONE', ( #186, #150, #225, #207, #114, #131, #31, #49 ) ) ;
#156 = EDGE_CURVE ( 'NONE', #76, #38, #90, .T. ) ;
#157 = CONICAL_SURFACE ( 'NONE', #226, 0.09375000000000001400, 0.7853981633973378100 ) ;
#158 = FACE_OUTER_BOUND ( 'NONE', #227, .T. ) ;
#159 = EDGE_LOOP ( 'NONE', ( #25, #211, #194, #183 ) ) ;
#160 = DIRECTION ( 'NONE',  ( 1.000000000000000000, 0.0000000000000000000, 0.0000000000000000000 ) ) ;
#161 = PRESENTATION_LAYER_ASSIGNMENT (  '', '', ( #177 ) ) ;
#162 = CARTESIAN_POINT ( 'NONE',  ( 0.09375000000000001400, 1.148106374200643900E-017, 17.97999999999999700 ) ) ;
#163 = DIRECTION ( 'NONE',  ( 1.000000000000000000, 0.0000000000000000000, -0.0000000000000000000 ) ) ;
#164 =( NAMED_UNIT ( * ) SI_UNIT ( $, .STERADIAN. ) SOLID_ANGLE_UNIT ( ) );
#165 = PRESENTATION_STYLE_ASSIGNMENT (( #124 ) ) ;
#166 = DIRECTION ( 'NONE',  ( 0.0000000000000000000, 0.0000000000000000000, -1.000000000000000000 ) ) ;
#167 =( CONVERSION_BASED_UNIT ( 'INCH', #73 ) LENGTH_UNIT ( ) NAMED_UNIT ( #91 ) );
#168 =( NAMED_UNIT ( * ) PLANE_ANGLE_UNIT ( ) SI_UNIT ( $, .RADIAN. ) );
#169 = PRESENTATION_LAYER_ASSIGNMENT (  '', '', ( #179 ) ) ;
#170 = EDGE_LOOP ( 'NONE', ( #3, #137, #141, #178 ) ) ;
#171 = DIMENSIONAL_EXPONENTS ( 1.000000000000000000, 0.0000000000000000000, 0.0000000000000000000, 0.0000000000000000000, 0.0000000000000000000, 0.0000000000000000000, 0.0000000000000000000 ) ;
#172 = EDGE_CURVE ( 'NONE', #20, #76, #40, .T. ) ;
#173 = ORIENTED_EDGE ( 'NONE', *, *, #24, .F. ) ;
#174 = CIRCLE ( 'NONE', #121, 0.07375000000001065400 ) ;
#175 = UNCERTAINTY_MEASURE_WITH_UNIT (LENGTH_MEASURE( 1.000000000000000100E-005 ), #29, 'distance_accuracy_value', 'NONE');
#176 = PRODUCT_DEFINITION_SHAPE ( 'NONE', 'NONE',  #88 ) ;
#177 = STYLED_ITEM ( 'NONE', ( #165 ), #59 ) ;
#178 = ORIENTED_EDGE ( 'NONE', *, *, #104, .F. ) ;
#179 = STYLED_ITEM ( 'NONE', ( #115 ), #129 ) ;
#180 = DIRECTION ( 'NONE',  ( -0.0000000000000000000, -0.0000000000000000000, 1.000000000000000000 ) ) ;
#181 = CYLINDRICAL_SURFACE ( 'NONE', #189, 0.09375000000000001400 ) ;
#182 = DIRECTION ( 'NONE',  ( 0.0000000000000000000, 0.0000000000000000000, -1.000000000000000000 ) ) ;
#183 = ORIENTED_EDGE ( 'NONE', *, *, #39, .F. ) ;
#184 = DIRECTION ( 'NONE',  ( 1.000000000000000000, 0.0000000000000000000, 0.0000000000000000000 ) ) ;
#185 =( NAMED_UNIT ( * ) SI_UNIT ( $, .STERADIAN. ) SOLID_ANGLE_UNIT ( ) );
#186 = ADVANCED_FACE ( 'NONE', ( #149 ), #33, .T. ) ;
#187 = AXIS2_PLACEMENT_3D ( 'NONE', #197, #84, #217 ) ;
#188 = EDGE_LOOP ( 'NONE', ( #112, #42 ) ) ;
#189 = AXIS2_PLACEMENT_3D ( 'NONE', #202, #44, #69 ) ;
#190 = VECTOR ( 'NONE', #10, 39.37007874015748900 ) ;
#191 = EDGE_LOOP ( 'NONE', ( #247, #231, #71, #99 ) ) ;
#192 = LENGTH_MEASURE_WITH_UNIT ( LENGTH_MEASURE( 0.02539999999999999900 ), #7 );
#193 = FACE_OUTER_BOUND ( 'NONE', #120, .T. ) ;
#194 = ORIENTED_EDGE ( 'NONE', *, *, #172, .T. ) ;
#195 = CARTESIAN_POINT ( 'NONE',  ( 0.07374999999999754000, 1.025641694285893400E-017, 18.00000000000000000 ) ) ;
#196 = AXIS2_PLACEMENT_3D ( 'NONE', #216, #182, #100 ) ;
#197 = CARTESIAN_POINT ( 'NONE',  ( 0.0000000000000000000, 0.0000000000000000000, 18.00000000000000000 ) ) ;
#198 = CARTESIAN_POINT ( 'NONE',  ( 0.0000000000000000000, 0.0000000000000000000, -18.00000000000000000 ) ) ;
#199 = CARTESIAN_POINT ( 'NONE',  ( 0.07374999999999754000, 9.031770143711427900E-018, 18.00000000000000000 ) ) ;
#200 = CARTESIAN_POINT ( 'NONE',  ( 0.0000000000000000000, 0.0000000000000000000, 18.00000000000000000 ) ) ;
#201 = DIRECTION ( 'NONE',  ( -0.0000000000000000000, -0.0000000000000000000, 1.000000000000000000 ) ) ;
#202 = CARTESIAN_POINT ( 'NONE',  ( 0.0000000000000000000, 0.0000000000000000000, 18.00000000000000000 ) ) ;
#203 = APPLICATION_PROTOCOL_DEFINITION ( 'draft international standard', 'automotive_design', 1998, #223 ) ;
#204 = LINE ( 'NONE', #43, #95 ) ;
#205 = DIRECTION ( 'NONE',  ( 1.000000000000000000, 0.0000000000000000000, 0.0000000000000000000 ) ) ;
#206 = AXIS2_PLACEMENT_3D ( 'NONE', #12, #27, #128 ) ;
#207 = ADVANCED_FACE ( 'NONE', ( #233 ), #244, .T. ) ;
#208 = ORIENTED_EDGE ( 'NONE', *, *, #16, .T. ) ;
#209 = FACE_OUTER_BOUND ( 'NONE', #15, .T. ) ;
#210 = CIRCLE ( 'NONE', #113, 0.07375000000001065400 ) ;
#211 = ORIENTED_EDGE ( 'NONE', *, *, #64, .F. ) ;
#212 = AXIS2_PLACEMENT_3D ( 'NONE', #234, #122, #5 ) ;
#213 = FACE_OUTER_BOUND ( 'NONE', #159, .T. ) ;
#214 = ORIENTED_EDGE ( 'NONE', *, *, #78, .F. ) ;
#215 = CARTESIAN_POINT ( 'NONE',  ( 0.0000000000000000000, 0.0000000000000000000, -17.98000000000000800 ) ) ;
#216 = CARTESIAN_POINT ( 'NONE',  ( 0.0000000000000000000, 0.0000000000000000000, 18.00000000000000000 ) ) ;
#217 = DIRECTION ( 'NONE',  ( 1.000000000000000000, 0.0000000000000000000, 0.0000000000000000000 ) ) ;
#218 = CARTESIAN_POINT ( 'NONE',  ( 0.0000000000000000000, 0.0000000000000000000, 17.97999999999999700 ) ) ;
#219 = ORIENTED_EDGE ( 'NONE', *, *, #24, .T. ) ;
#220 = CARTESIAN_POINT ( 'NONE',  ( 0.0000000000000000000, 0.0000000000000000000, -18.00000000000000000 ) ) ;
#221 = DIRECTION ( 'NONE',  ( 1.000000000000000000, 0.0000000000000000000, 0.0000000000000000000 ) ) ;
#222 = CARTESIAN_POINT ( 'NONE',  ( -0.09375000000000001400, 0.0000000000000000000, 17.97999999999999700 ) ) ;
#223 = APPLICATION_CONTEXT ( 'automotive_design' ) ;
#224 = APPLICATION_CONTEXT ( 'automotive_design' ) ;
#225 = ADVANCED_FACE ( 'NONE', ( #139 ), #181, .T. ) ;
#226 = AXIS2_PLACEMENT_3D ( 'NONE', #215, #180, #4 ) ;
#227 = EDGE_LOOP ( 'NONE', ( #126, #19 ) ) ;
#228 = CARTESIAN_POINT ( 'NONE',  ( 0.0000000000000000000, 0.0000000000000000000, -18.00000000000000000 ) ) ;
#229 =( GEOMETRIC_REPRESENTATION_CONTEXT ( 3 ) GLOBAL_UNCERTAINTY_ASSIGNED_CONTEXT ( ( #80 ) ) GLOBAL_UNIT_ASSIGNED_CONTEXT ( ( #167, #45, #185 ) ) REPRESENTATION_CONTEXT ( 'NONE', 'WORKASPACE' ) );
#230 = COLOUR_RGB ( '',0.7921568627450980000, 0.8196078431372548800, 0.9333333333333333500 ) ;
#231 = ORIENTED_EDGE ( 'NONE', *, *, #248, .T. ) ;
#232 = CARTESIAN_POINT ( 'NONE',  ( 0.07375000000001065400, 0.0000000000000000000, -18.00000000000000000 ) ) ;
#233 = FACE_OUTER_BOUND ( 'NONE', #152, .T. ) ;
#234 = CARTESIAN_POINT ( 'NONE',  ( 0.0000000000000000000, 0.0000000000000000000, -17.98000000000000800 ) ) ;
#235 = DIRECTION ( 'NONE',  ( 1.000000000000000000, 0.0000000000000000000, 0.0000000000000000000 ) ) ;
#236 = AXIS2_PLACEMENT_3D ( 'NONE', #140, #21, #160 ) ;
#237 = VERTEX_POINT ( 'NONE', #222 ) ;
#238 = SURFACE_SIDE_STYLE ('',( #57 ) ) ;
#239 = DIRECTION ( 'NONE',  ( 1.000000000000000000, 0.0000000000000000000, 0.0000000000000000000 ) ) ;
#240 = DIRECTION ( 'NONE',  ( 1.000000000000000000, 0.0000000000000000000, 0.0000000000000000000 ) ) ;
#241 = DIRECTION ( 'NONE',  ( -1.000000000000000000, 0.0000000000000000000, 0.0000000000000000000 ) ) ;
#242 = FILL_AREA_STYLE ('',( #108 ) ) ;
#243 = AXIS2_PLACEMENT_3D ( 'NONE', #106, #166, #241 ) ;
#244 = CYLINDRICAL_SURFACE ( 'NONE', #206, 0.09375000000000001400 ) ;
#245 = VERTEX_POINT ( 'NONE', #107 ) ;
#246 = FACE_OUTER_BOUND ( 'NONE', #188, .T. ) ;
#247 = ORIENTED_EDGE ( 'NONE', *, *, #118, .T. ) ;
#248 = EDGE_CURVE ( 'NONE', #74, #76, #135, .T. ) ;
#249 = CONICAL_SURFACE ( 'NONE', #196, 0.07374999999999754000, 0.7853981633974470600 ) ;
ENDSEC;
END-ISO-10303-21;
