ISO-10303-21;
HEADER;
FILE_DESCRIPTION (( 'STEP AP214' ),
    '1' );
FILE_NAME ('RPSS03-6.step',
    '2017-08-09T17:42:11',
    ( '' ),
    ( '' ),
    'SwSTEP 2.0',
    'SolidWorks 2017',
    '' );
FILE_SCHEMA (( 'AUTOMOTIVE_DESIGN' ));
ENDSEC;

DATA;
#1 = ORIENTED_EDGE ( 'NONE', *, *, #93, .F. ) ;
#2 = AXIS2_PLACEMENT_3D ( 'NONE', #27, #52, #157 ) ;
#3 = CARTESIAN_POINT ( 'NONE',  ( 0.07374999999999425100, 0.0000000000000000000, -3.000000000000000400 ) ) ;
#4 = CARTESIAN_POINT ( 'NONE',  ( 0.0000000000000000000, 0.0000000000000000000, 3.000000000000000400 ) ) ;
#5 = LENGTH_MEASURE_WITH_UNIT ( LENGTH_MEASURE( 0.02539999999999999900 ), #48 );
#6 = DIRECTION ( 'NONE',  ( -0.0000000000000000000, -0.0000000000000000000, -1.000000000000000000 ) ) ;
#7 = DIRECTION ( 'NONE',  ( 0.7071067811865372500, 8.659560562354808400E-017, -0.7071067811865577900 ) ) ;
#8 = DIRECTION ( 'NONE',  ( 0.0000000000000000000, 0.0000000000000000000, 1.000000000000000000 ) ) ;
#9 = LINE ( 'NONE', #94, #114 ) ;
#10 = EDGE_CURVE ( 'NONE', #66, #189, #131, .T. ) ;
#11 = CARTESIAN_POINT ( 'NONE',  ( 0.09375000000000001400, 0.0000000000000000000, -2.979999999999994700 ) ) ;
#12 = ORIENTED_EDGE ( 'NONE', *, *, #246, .T. ) ;
#13 = ORIENTED_EDGE ( 'NONE', *, *, #65, .F. ) ;
#14 = FILL_AREA_STYLE_COLOUR ( '', #101 ) ;
#15 =( LENGTH_UNIT ( ) NAMED_UNIT ( * ) SI_UNIT ( $, .METRE. ) );
#16 = PRODUCT_DEFINITION_FORMATION_WITH_SPECIFIED_SOURCE ( 'ANY', '', #43, .NOT_KNOWN. ) ;
#17 = CIRCLE ( 'NONE', #86, 0.09375000000000001400 ) ;
#18 = AXIS2_PLACEMENT_3D ( 'NONE', #217, #108, #238 ) ;
#19 = CYLINDRICAL_SURFACE ( 'NONE', #113, 0.09375000000000001400 ) ;
#20 = VERTEX_POINT ( 'NONE', #233 ) ;
#21 = EDGE_CURVE ( 'NONE', #116, #66, #97, .T. ) ;
#22 = SURFACE_STYLE_FILL_AREA ( #138 ) ;
#23 = SURFACE_SIDE_STYLE ('',( #22 ) ) ;
#24 = DIRECTION ( 'NONE',  ( 0.0000000000000000000, 0.0000000000000000000, 1.000000000000000000 ) ) ;
#25 = PRODUCT_RELATED_PRODUCT_CATEGORY ( 'part', '', ( #43 ) ) ;
#26 = DIMENSIONAL_EXPONENTS ( 1.000000000000000000, 0.0000000000000000000, 0.0000000000000000000, 0.0000000000000000000, 0.0000000000000000000, 0.0000000000000000000, 0.0000000000000000000 ) ;
#27 = CARTESIAN_POINT ( 'NONE',  ( 0.0000000000000000000, 0.0000000000000000000, -2.979999999999994700 ) ) ;
#28 = LINE ( 'NONE', #110, #230 ) ;
#29 = DIRECTION ( 'NONE',  ( -0.7071067811865469100, 8.659560562354925500E-017, 0.7071067811865481300 ) ) ;
#30 = EDGE_LOOP ( 'NONE', ( #231, #249 ) ) ;
#31 = CARTESIAN_POINT ( 'NONE',  ( 0.0000000000000000000, 0.0000000000000000000, -2.979999999999994700 ) ) ;
#32 =( LENGTH_UNIT ( ) NAMED_UNIT ( * ) SI_UNIT ( $, .METRE. ) );
#33 = AXIS2_PLACEMENT_3D ( 'NONE', #215, #195, #237 ) ;
#34 = ORIENTED_EDGE ( 'NONE', *, *, #21, .T. ) ;
#35 =( NAMED_UNIT ( * ) PLANE_ANGLE_UNIT ( ) SI_UNIT ( $, .RADIAN. ) );
#36 = ORIENTED_EDGE ( 'NONE', *, *, #55, .F. ) ;
#37 = CIRCLE ( 'NONE', #61, 0.09375000000000001400 ) ;
#38 = ORIENTED_EDGE ( 'NONE', *, *, #80, .F. ) ;
#39 = EDGE_CURVE ( 'NONE', #189, #92, #85, .T. ) ;
#40 = FACE_OUTER_BOUND ( 'NONE', #79, .T. ) ;
#41 = FACE_OUTER_BOUND ( 'NONE', #88, .T. ) ;
#42 = ORIENTED_EDGE ( 'NONE', *, *, #232, .T. ) ;
#43 = PRODUCT ( 'RPSS03-6', 'RPSS03-6', '', ( #206 ) ) ;
#44 = SURFACE_STYLE_FILL_AREA ( #112 ) ;
#45 = DIRECTION ( 'NONE',  ( 0.0000000000000000000, 0.0000000000000000000, -1.000000000000000000 ) ) ;
#46 = ORIENTED_EDGE ( 'NONE', *, *, #166, .T. ) ;
#47 = AXIS2_PLACEMENT_3D ( 'NONE', #90, #158, #71 ) ;
#48 =( LENGTH_UNIT ( ) NAMED_UNIT ( * ) SI_UNIT ( $, .METRE. ) );
#49 = ADVANCED_FACE ( 'NONE', ( #41 ), #212, .F. ) ;
#50 = UNCERTAINTY_MEASURE_WITH_UNIT (LENGTH_MEASURE( 1.000000000000000100E-005 ), #163, 'distance_accuracy_value', 'NONE');
#51 = CIRCLE ( 'NONE', #204, 0.07375000000000298000 ) ;
#52 = DIRECTION ( 'NONE',  ( -0.0000000000000000000, -0.0000000000000000000, 1.000000000000000000 ) ) ;
#53 = DIRECTION ( 'NONE',  ( -0.0000000000000000000, -0.0000000000000000000, -1.000000000000000000 ) ) ;
#54 = MANIFOLD_SOLID_BREP ( 'Chamfer1', #64 ) ;
#55 = EDGE_CURVE ( 'NONE', #126, #20, #51, .T. ) ;
#56 = DIRECTION ( 'NONE',  ( 1.000000000000000000, 0.0000000000000000000, 0.0000000000000000000 ) ) ;
#57 =( NAMED_UNIT ( * ) PLANE_ANGLE_UNIT ( ) SI_UNIT ( $, .RADIAN. ) );
#58 = VERTEX_POINT ( 'NONE', #3 ) ;
#59 = LENGTH_MEASURE_WITH_UNIT ( LENGTH_MEASURE( 0.02539999999999999900 ), #32 );
#60 = EDGE_LOOP ( 'NONE', ( #145, #13, #42, #168 ) ) ;
#61 = AXIS2_PLACEMENT_3D ( 'NONE', #72, #200, #91 ) ;
#62 = ADVANCED_FACE ( 'NONE', ( #63 ), #214, .T. ) ;
#63 = FACE_OUTER_BOUND ( 'NONE', #30, .T. ) ;
#64 = CLOSED_SHELL ( 'NONE', ( #156, #140, #196, #70, #62, #49, #235, #216 ) ) ;
#65 = EDGE_CURVE ( 'NONE', #58, #148, #188, .T. ) ;
#66 = VERTEX_POINT ( 'NONE', #106 ) ;
#67 = CARTESIAN_POINT ( 'NONE',  ( 0.0000000000000000000, 0.0000000000000000000, -3.000000000000000400 ) ) ;
#68 =( NAMED_UNIT ( * ) PLANE_ANGLE_UNIT ( ) SI_UNIT ( $, .RADIAN. ) );
#69 = DIRECTION ( 'NONE',  ( 1.000000000000000000, 0.0000000000000000000, -0.0000000000000000000 ) ) ;
#70 = ADVANCED_FACE ( 'NONE', ( #142 ), #185, .T. ) ;
#71 = DIRECTION ( 'NONE',  ( -1.000000000000000000, 0.0000000000000000000, 0.0000000000000000000 ) ) ;
#72 = CARTESIAN_POINT ( 'NONE',  ( 0.0000000000000000000, 0.0000000000000000000, 2.980000000000002600 ) ) ;
#73 = FACE_OUTER_BOUND ( 'NONE', #60, .T. ) ;
#74 = CARTESIAN_POINT ( 'NONE',  ( 0.0000000000000000000, 0.0000000000000000000, 3.000000000000000400 ) ) ;
#75 = DIRECTION ( 'NONE',  ( -0.0000000000000000000, -0.0000000000000000000, -1.000000000000000000 ) ) ;
#76 = AXIS2_PLACEMENT_3D ( 'NONE', #125, #8, #146 ) ;
#77 = DIRECTION ( 'NONE',  ( 1.000000000000000000, 0.0000000000000000000, 0.0000000000000000000 ) ) ;
#78 = FACE_OUTER_BOUND ( 'NONE', #172, .T. ) ;
#79 = EDGE_LOOP ( 'NONE', ( #38, #130, #109, #100 ) ) ;
#80 = EDGE_CURVE ( 'NONE', #148, #58, #239, .T. ) ;
#81 = CONICAL_SURFACE ( 'NONE', #2, 0.09375000000000001400, 0.7853981633974473900 ) ;
#82 = ORIENTED_EDGE ( 'NONE', *, *, #65, .T. ) ;
#83 = DIRECTION ( 'NONE',  ( -0.0000000000000000000, -0.0000000000000000000, -1.000000000000000000 ) ) ;
#84 = CARTESIAN_POINT ( 'NONE',  ( 0.0000000000000000000, 0.0000000000000000000, -2.979999999999994700 ) ) ;
#85 = CIRCLE ( 'NONE', #115, 0.09375000000000001400 ) ;
#86 = AXIS2_PLACEMENT_3D ( 'NONE', #31, #161, #56 ) ;
#87 = CARTESIAN_POINT ( 'NONE',  ( 0.07375000000000298000, 9.031770143712095100E-018, 3.000000000000000400 ) ) ;
#88 = EDGE_LOOP ( 'NONE', ( #82, #203 ) ) ;
#89 = VECTOR ( 'NONE', #7, 39.37007874015748100 ) ;
#90 = CARTESIAN_POINT ( 'NONE',  ( 0.0000000000000000000, 0.0000000000000000000, 3.000000000000000400 ) ) ;
#91 = DIRECTION ( 'NONE',  ( 1.000000000000000000, 0.0000000000000000000, 0.0000000000000000000 ) ) ;
#92 = VERTEX_POINT ( 'NONE', #197 ) ;
#93 = EDGE_CURVE ( 'NONE', #20, #116, #135, .T. ) ;
#94 = CARTESIAN_POINT ( 'NONE',  ( 0.09375000000000001400, 1.148106374200643400E-017, 3.000000000000000400 ) ) ;
#95 = ORIENTED_EDGE ( 'NONE', *, *, #179, .F. ) ;
#96 = APPLICATION_CONTEXT ( 'automotive_design' ) ;
#97 = CIRCLE ( 'NONE', #103, 0.09375000000000001400 ) ;
#98 = UNCERTAINTY_MEASURE_WITH_UNIT (LENGTH_MEASURE( 1.000000000000000100E-005 ), #171, 'distance_accuracy_value', 'NONE');
#99 = CIRCLE ( 'NONE', #76, 0.07375000000000298000 ) ;
#100 = ORIENTED_EDGE ( 'NONE', *, *, #232, .F. ) ;
#101 = COLOUR_RGB ( '',0.7921568627450980000, 0.8196078431372548800, 0.9333333333333333500 ) ;
#102 = AXIS2_PLACEMENT_3D ( 'NONE', #74, #201, #180 ) ;
#103 = AXIS2_PLACEMENT_3D ( 'NONE', #151, #45, #170 ) ;
#104 = CARTESIAN_POINT ( 'NONE',  ( -0.09375000000000001400, 0.0000000000000000000, 3.000000000000000400 ) ) ;
#105 = DIRECTION ( 'NONE',  ( 1.000000000000000000, 0.0000000000000000000, 0.0000000000000000000 ) ) ;
#106 = CARTESIAN_POINT ( 'NONE',  ( -0.09375000000000001400, 0.0000000000000000000, 2.980000000000002600 ) ) ;
#107 = DIMENSIONAL_EXPONENTS ( 1.000000000000000000, 0.0000000000000000000, 0.0000000000000000000, 0.0000000000000000000, 0.0000000000000000000, 0.0000000000000000000, 0.0000000000000000000 ) ;
#108 = DIRECTION ( 'NONE',  ( -0.0000000000000000000, -0.0000000000000000000, -1.000000000000000000 ) ) ;
#109 = ORIENTED_EDGE ( 'NONE', *, *, #220, .F. ) ;
#110 = CARTESIAN_POINT ( 'NONE',  ( -0.07375000000000298000, 0.0000000000000000000, 3.000000000000000400 ) ) ;
#111 = CARTESIAN_POINT ( 'NONE',  ( 0.0000000000000000000, 0.0000000000000000000, -2.979999999999994700 ) ) ;
#112 = FILL_AREA_STYLE ('',( #14 ) ) ;
#113 = AXIS2_PLACEMENT_3D ( 'NONE', #241, #53, #218 ) ;
#114 = VECTOR ( 'NONE', #75, 39.37007874015748100 ) ;
#115 = AXIS2_PLACEMENT_3D ( 'NONE', #84, #213, #105 ) ;
#116 = VERTEX_POINT ( 'NONE', #143 ) ;
#117 = VECTOR ( 'NONE', #127, 39.37007874015748100 ) ;
#118 = FILL_AREA_STYLE_COLOUR ( '', #226 ) ;
#119 = PRODUCT_DEFINITION_CONTEXT ( 'detailed design', #96, 'design' ) ;
#120 = DIRECTION ( 'NONE',  ( 1.000000000000000000, 0.0000000000000000000, -0.0000000000000000000 ) ) ;
#121 = AXIS2_PLACEMENT_3D ( 'NONE', #111, #202, #221 ) ;
#122 = CARTESIAN_POINT ( 'NONE',  ( 0.0000000000000000000, 0.0000000000000000000, -3.000000000000000400 ) ) ;
#123 = CARTESIAN_POINT ( 'NONE',  ( -0.07375000000000298000, 0.0000000000000000000, 3.000000000000000400 ) ) ;
#124 = LINE ( 'NONE', #159, #175 ) ;
#125 = CARTESIAN_POINT ( 'NONE',  ( 0.0000000000000000000, 0.0000000000000000000, 3.000000000000000400 ) ) ;
#126 = VERTEX_POINT ( 'NONE', #123 ) ;
#127 = DIRECTION ( 'NONE',  ( 0.7071067811865469100, 0.0000000000000000000, 0.7071067811865481300 ) ) ;
#128 = SURFACE_STYLE_USAGE ( .BOTH. , #244 ) ;
#129 = FACE_OUTER_BOUND ( 'NONE', #178, .T. ) ;
#130 = ORIENTED_EDGE ( 'NONE', *, *, #209, .T. ) ;
#131 = LINE ( 'NONE', #104, #194 ) ;
#132 = ORIENTED_EDGE ( 'NONE', *, *, #166, .F. ) ;
#133 = SHAPE_DEFINITION_REPRESENTATION ( #191, #248 ) ;
#134 =( GEOMETRIC_REPRESENTATION_CONTEXT ( 3 ) GLOBAL_UNCERTAINTY_ASSIGNED_CONTEXT ( ( #50 ) ) GLOBAL_UNIT_ASSIGNED_CONTEXT ( ( #163, #57, #182 ) ) REPRESENTATION_CONTEXT ( 'NONE', 'WORKASPACE' ) );
#135 = LINE ( 'NONE', #87, #89 ) ;
#136 = ORIENTED_EDGE ( 'NONE', *, *, #21, .F. ) ;
#137 = STYLED_ITEM ( 'NONE', ( #176 ), #54 ) ;
#138 = FILL_AREA_STYLE ('',( #118 ) ) ;
#139 = CARTESIAN_POINT ( 'NONE',  ( 0.0000000000000000000, 0.0000000000000000000, 3.000000000000000400 ) ) ;
#140 = ADVANCED_FACE ( 'NONE', ( #40 ), #81, .T. ) ;
#141 = DIRECTION ( 'NONE',  ( 1.000000000000000000, 0.0000000000000000000, 0.0000000000000000000 ) ) ;
#142 = FACE_OUTER_BOUND ( 'NONE', #149, .T. ) ;
#143 = CARTESIAN_POINT ( 'NONE',  ( 0.09375000000000001400, 1.148106374200643400E-017, 2.980000000000002600 ) ) ;
#144 = CARTESIAN_POINT ( 'NONE',  ( -0.09375000000000001400, 0.0000000000000000000, -2.979999999999994700 ) ) ;
#145 = ORIENTED_EDGE ( 'NONE', *, *, #209, .F. ) ;
#146 = DIRECTION ( 'NONE',  ( 1.000000000000000000, 0.0000000000000000000, 0.0000000000000000000 ) ) ;
#147 =( CONVERSION_BASED_UNIT ( 'INCH', #181 ) LENGTH_UNIT ( ) NAMED_UNIT ( #219 ) );
#148 = VERTEX_POINT ( 'NONE', #198 ) ;
#149 = EDGE_LOOP ( 'NONE', ( #229, #34, #240, #152 ) ) ;
#150 = AXIS2_PLACEMENT_3D ( 'NONE', #67, #234, #120 ) ;
#151 = CARTESIAN_POINT ( 'NONE',  ( 0.0000000000000000000, 0.0000000000000000000, 2.980000000000002600 ) ) ;
#152 = ORIENTED_EDGE ( 'NONE', *, *, #39, .T. ) ;
#153 = SURFACE_STYLE_USAGE ( .BOTH. , #23 ) ;
#154 = STYLED_ITEM ( 'NONE', ( #242 ), #248 ) ;
#155 = DIRECTION ( 'NONE',  ( 1.000000000000000000, 0.0000000000000000000, 0.0000000000000000000 ) ) ;
#156 = ADVANCED_FACE ( 'NONE', ( #129 ), #225, .T. ) ;
#157 = DIRECTION ( 'NONE',  ( 1.000000000000000000, 0.0000000000000000000, 0.0000000000000000000 ) ) ;
#158 = DIRECTION ( 'NONE',  ( 0.0000000000000000000, 0.0000000000000000000, -1.000000000000000000 ) ) ;
#159 = CARTESIAN_POINT ( 'NONE',  ( -0.09375000000000001400, 1.148106374200643900E-017, -2.979999999999994700 ) ) ;
#160 = ORIENTED_EDGE ( 'NONE', *, *, #190, .F. ) ;
#161 = DIRECTION ( 'NONE',  ( -0.0000000000000000000, -0.0000000000000000000, 1.000000000000000000 ) ) ;
#162 = PRESENTATION_LAYER_ASSIGNMENT (  '', '', ( #137 ) ) ;
#163 =( CONVERSION_BASED_UNIT ( 'INCH', #59 ) LENGTH_UNIT ( ) NAMED_UNIT ( #107 ) );
#164 =( NAMED_UNIT ( * ) SI_UNIT ( $, .STERADIAN. ) SOLID_ANGLE_UNIT ( ) );
#165 = LINE ( 'NONE', #11, #117 ) ;
#166 = EDGE_CURVE ( 'NONE', #126, #66, #28, .T. ) ;
#167 = PRESENTATION_LAYER_ASSIGNMENT (  '', '', ( #154 ) ) ;
#168 = ORIENTED_EDGE ( 'NONE', *, *, #39, .F. ) ;
#169 = MECHANICAL_DESIGN_GEOMETRIC_PRESENTATION_REPRESENTATION (  '', ( #137 ), #187 ) ;
#170 = DIRECTION ( 'NONE',  ( 1.000000000000000000, 0.0000000000000000000, 0.0000000000000000000 ) ) ;
#171 =( CONVERSION_BASED_UNIT ( 'INCH', #5 ) LENGTH_UNIT ( ) NAMED_UNIT ( #26 ) );
#172 = EDGE_LOOP ( 'NONE', ( #1, #36, #46, #136 ) ) ;
#173 = DIRECTION ( 'NONE',  ( 0.0000000000000000000, 0.0000000000000000000, 1.000000000000000000 ) ) ;
#174 = DIRECTION ( 'NONE',  ( -0.7071067811865372500, 0.0000000000000000000, -0.7071067811865577900 ) ) ;
#175 = VECTOR ( 'NONE', #29, 39.37007874015748100 ) ;
#176 = PRESENTATION_STYLE_ASSIGNMENT (( #153 ) ) ;
#177 = EDGE_LOOP ( 'NONE', ( #210, #12, #227, #199 ) ) ;
#178 = EDGE_LOOP ( 'NONE', ( #160, #186, #95, #132 ) ) ;
#179 = EDGE_CURVE ( 'NONE', #66, #116, #37, .T. ) ;
#180 = DIRECTION ( 'NONE',  ( -1.000000000000000000, 0.0000000000000000000, 0.0000000000000000000 ) ) ;
#181 = LENGTH_MEASURE_WITH_UNIT ( LENGTH_MEASURE( 0.02539999999999999900 ), #15 );
#182 =( NAMED_UNIT ( * ) SI_UNIT ( $, .STERADIAN. ) SOLID_ANGLE_UNIT ( ) );
#183 = DIRECTION ( 'NONE',  ( 0.0000000000000000000, 0.0000000000000000000, 1.000000000000000000 ) ) ;
#184 = MECHANICAL_DESIGN_GEOMETRIC_PRESENTATION_REPRESENTATION (  '', ( #154 ), #193 ) ;
#185 = CYLINDRICAL_SURFACE ( 'NONE', #33, 0.09375000000000001400 ) ;
#186 = ORIENTED_EDGE ( 'NONE', *, *, #93, .T. ) ;
#187 =( GEOMETRIC_REPRESENTATION_CONTEXT ( 3 ) GLOBAL_UNCERTAINTY_ASSIGNED_CONTEXT ( ( #98 ) ) GLOBAL_UNIT_ASSIGNED_CONTEXT ( ( #171, #68, #192 ) ) REPRESENTATION_CONTEXT ( 'NONE', 'WORKASPACE' ) );
#188 = CIRCLE ( 'NONE', #228, 0.07374999999999425100 ) ;
#189 = VERTEX_POINT ( 'NONE', #144 ) ;
#190 = EDGE_CURVE ( 'NONE', #20, #126, #99, .T. ) ;
#191 = PRODUCT_DEFINITION_SHAPE ( 'NONE', 'NONE',  #247 ) ;
#192 =( NAMED_UNIT ( * ) SI_UNIT ( $, .STERADIAN. ) SOLID_ANGLE_UNIT ( ) );
#193 =( GEOMETRIC_REPRESENTATION_CONTEXT ( 3 ) GLOBAL_UNCERTAINTY_ASSIGNED_CONTEXT ( ( #207 ) ) GLOBAL_UNIT_ASSIGNED_CONTEXT ( ( #147, #35, #164 ) ) REPRESENTATION_CONTEXT ( 'NONE', 'WORKASPACE' ) );
#194 = VECTOR ( 'NONE', #83, 39.37007874015748100 ) ;
#195 = DIRECTION ( 'NONE',  ( -0.0000000000000000000, -0.0000000000000000000, -1.000000000000000000 ) ) ;
#196 = ADVANCED_FACE ( 'NONE', ( #245 ), #19, .T. ) ;
#197 = CARTESIAN_POINT ( 'NONE',  ( 0.09375000000000001400, 1.148106374200643400E-017, -2.979999999999994700 ) ) ;
#198 = CARTESIAN_POINT ( 'NONE',  ( -0.07374999999999425100, 1.025641694285873100E-017, -3.000000000000000400 ) ) ;
#199 = ORIENTED_EDGE ( 'NONE', *, *, #10, .F. ) ;
#200 = DIRECTION ( 'NONE',  ( 0.0000000000000000000, 0.0000000000000000000, -1.000000000000000000 ) ) ;
#201 = DIRECTION ( 'NONE',  ( 0.0000000000000000000, 0.0000000000000000000, -1.000000000000000000 ) ) ;
#202 = DIRECTION ( 'NONE',  ( -0.0000000000000000000, -0.0000000000000000000, 1.000000000000000000 ) ) ;
#203 = ORIENTED_EDGE ( 'NONE', *, *, #80, .T. ) ;
#204 = AXIS2_PLACEMENT_3D ( 'NONE', #139, #24, #155 ) ;
#205 = APPLICATION_PROTOCOL_DEFINITION ( 'draft international standard', 'automotive_design', 1998, #223 ) ;
#206 = PRODUCT_CONTEXT ( 'NONE', #223, 'mechanical' ) ;
#207 = UNCERTAINTY_MEASURE_WITH_UNIT (LENGTH_MEASURE( 1.000000000000000100E-005 ), #147, 'distance_accuracy_value', 'NONE');
#208 = CONICAL_SURFACE ( 'NONE', #121, 0.09375000000000001400, 0.7853981633974473900 ) ;
#209 = EDGE_CURVE ( 'NONE', #148, #189, #124, .T. ) ;
#210 = ORIENTED_EDGE ( 'NONE', *, *, #179, .T. ) ;
#211 = CONICAL_SURFACE ( 'NONE', #102, 0.07375000000000298000, 0.7853981633974337400 ) ;
#212 = PLANE ( 'NONE',  #150 ) ;
#213 = DIRECTION ( 'NONE',  ( -0.0000000000000000000, -0.0000000000000000000, 1.000000000000000000 ) ) ;
#214 = PLANE ( 'NONE',  #243 ) ;
#215 = CARTESIAN_POINT ( 'NONE',  ( 0.0000000000000000000, 0.0000000000000000000, 3.000000000000000400 ) ) ;
#216 = ADVANCED_FACE ( 'NONE', ( #78 ), #211, .T. ) ;
#217 = CARTESIAN_POINT ( 'NONE',  ( 0.0000000000000000000, 0.0000000000000000000, -3.000000000000000400 ) ) ;
#218 = DIRECTION ( 'NONE',  ( -1.000000000000000000, 0.0000000000000000000, 0.0000000000000000000 ) ) ;
#219 = DIMENSIONAL_EXPONENTS ( 1.000000000000000000, 0.0000000000000000000, 0.0000000000000000000, 0.0000000000000000000, 0.0000000000000000000, 0.0000000000000000000, 0.0000000000000000000 ) ;
#220 = EDGE_CURVE ( 'NONE', #92, #189, #17, .T. ) ;
#221 = DIRECTION ( 'NONE',  ( 1.000000000000000000, 0.0000000000000000000, 0.0000000000000000000 ) ) ;
#222 = CARTESIAN_POINT ( 'NONE',  ( 0.0000000000000000000, 0.0000000000000000000, 0.0000000000000000000 ) ) ;
#223 = APPLICATION_CONTEXT ( 'automotive_design' ) ;
#224 = APPLICATION_PROTOCOL_DEFINITION ( 'draft international standard', 'automotive_design', 1998, #96 ) ;
#225 = CONICAL_SURFACE ( 'NONE', #47, 0.07375000000000298000, 0.7853981633974337400 ) ;
#226 = COLOUR_RGB ( '',0.7921568627450980000, 0.8196078431372548800, 0.9333333333333333500 ) ;
#227 = ORIENTED_EDGE ( 'NONE', *, *, #220, .T. ) ;
#228 = AXIS2_PLACEMENT_3D ( 'NONE', #122, #6, #141 ) ;
#229 = ORIENTED_EDGE ( 'NONE', *, *, #246, .F. ) ;
#230 = VECTOR ( 'NONE', #174, 39.37007874015748100 ) ;
#231 = ORIENTED_EDGE ( 'NONE', *, *, #55, .T. ) ;
#232 = EDGE_CURVE ( 'NONE', #58, #92, #165, .T. ) ;
#233 = CARTESIAN_POINT ( 'NONE',  ( 0.07375000000000298000, 1.025641694285926800E-017, 3.000000000000000400 ) ) ;
#234 = DIRECTION ( 'NONE',  ( 0.0000000000000000000, 0.0000000000000000000, 1.000000000000000000 ) ) ;
#235 = ADVANCED_FACE ( 'NONE', ( #73 ), #208, .T. ) ;
#236 = AXIS2_PLACEMENT_3D ( 'NONE', #222, #183, #77 ) ;
#237 = DIRECTION ( 'NONE',  ( -1.000000000000000000, 0.0000000000000000000, 0.0000000000000000000 ) ) ;
#238 = DIRECTION ( 'NONE',  ( 1.000000000000000000, 0.0000000000000000000, 0.0000000000000000000 ) ) ;
#239 = CIRCLE ( 'NONE', #18, 0.07374999999999425100 ) ;
#240 = ORIENTED_EDGE ( 'NONE', *, *, #10, .T. ) ;
#241 = CARTESIAN_POINT ( 'NONE',  ( 0.0000000000000000000, 0.0000000000000000000, 3.000000000000000400 ) ) ;
#242 = PRESENTATION_STYLE_ASSIGNMENT (( #128 ) ) ;
#243 = AXIS2_PLACEMENT_3D ( 'NONE', #4, #173, #69 ) ;
#244 = SURFACE_SIDE_STYLE ('',( #44 ) ) ;
#245 = FACE_OUTER_BOUND ( 'NONE', #177, .T. ) ;
#246 = EDGE_CURVE ( 'NONE', #116, #92, #9, .T. ) ;
#247 = PRODUCT_DEFINITION ( 'UNKNOWN', '', #16, #119 ) ;
#248 = ADVANCED_BREP_SHAPE_REPRESENTATION ( 'RPSS03-6', ( #54, #236 ), #134 ) ;
#249 = ORIENTED_EDGE ( 'NONE', *, *, #190, .T. ) ;
ENDSEC;
END-ISO-10303-21;
