ISO-10303-21;
HEADER;
FILE_DESCRIPTION (( 'STEP AP214' ),
    '1' );
FILE_NAME ('RPSS04-12.step',
    '2017-08-09T17:43:49',
    ( '' ),
    ( '' ),
    'SwSTEP 2.0',
    'SolidWorks 2017',
    '' );
FILE_SCHEMA (( 'AUTOMOTIVE_DESIGN' ));
ENDSEC;

DATA;
#1 = EDGE_CURVE ( 'NONE', #117, #207, #110, .T. ) ;
#2 = VECTOR ( 'NONE', #15, 39.37007874015748100 ) ;
#3 = ORIENTED_EDGE ( 'NONE', *, *, #60, .F. ) ;
#4 = CIRCLE ( 'NONE', #134, 0.1250000000000000000 ) ;
#5 = AXIS2_PLACEMENT_3D ( 'NONE', #107, #46, #10 ) ;
#6 = CARTESIAN_POINT ( 'NONE',  ( 0.09500000000000101400, 1.347111479062094800E-017, 6.000000000000000900 ) ) ;
#7 = CYLINDRICAL_SURFACE ( 'NONE', #129, 0.1250000000000000000 ) ;
#8 = DIRECTION ( 'NONE',  ( 1.000000000000000000, 0.0000000000000000000, -0.0000000000000000000 ) ) ;
#9 = ORIENTED_EDGE ( 'NONE', *, *, #21, .T. ) ;
#10 = DIRECTION ( 'NONE',  ( -1.000000000000000000, 0.0000000000000000000, 0.0000000000000000000 ) ) ;
#11 = DIRECTION ( 'NONE',  ( 1.000000000000000000, 0.0000000000000000000, 0.0000000000000000000 ) ) ;
#12 = VERTEX_POINT ( 'NONE', #233 ) ;
#13 = DIRECTION ( 'NONE',  ( 0.7071067811865553400, 8.659560562355029000E-017, -0.7071067811865396900 ) ) ;
#14 = DIRECTION ( 'NONE',  ( -0.7071067811865553400, 8.659560562355029000E-017, 0.7071067811865396900 ) ) ;
#15 = DIRECTION ( 'NONE',  ( 0.7071067811865553400, 0.0000000000000000000, 0.7071067811865396900 ) ) ;
#16 = APPLICATION_PROTOCOL_DEFINITION ( 'draft international standard', 'automotive_design', 1998, #38 ) ;
#17 = LINE ( 'NONE', #128, #114 ) ;
#18 = CLOSED_SHELL ( 'NONE', ( #214, #136, #192, #236, #157, #44, #120, #66 ) ) ;
#19 = SURFACE_STYLE_FILL_AREA ( #57 ) ;
#20 = DIRECTION ( 'NONE',  ( 1.000000000000000000, 0.0000000000000000000, 0.0000000000000000000 ) ) ;
#21 = EDGE_CURVE ( 'NONE', #133, #117, #4, .T. ) ;
#22 = ORIENTED_EDGE ( 'NONE', *, *, #195, .T. ) ;
#23 = AXIS2_PLACEMENT_3D ( 'NONE', #31, #162, #51 ) ;
#24 = FACE_OUTER_BOUND ( 'NONE', #247, .T. ) ;
#25 = UNCERTAINTY_MEASURE_WITH_UNIT (LENGTH_MEASURE( 1.000000000000000100E-005 ), #71, 'distance_accuracy_value', 'NONE');
#26 = ORIENTED_EDGE ( 'NONE', *, *, #146, .T. ) ;
#27 = CIRCLE ( 'NONE', #189, 0.1250000000000000000 ) ;
#28 = DIRECTION ( 'NONE',  ( -0.0000000000000000000, -0.0000000000000000000, 1.000000000000000000 ) ) ;
#29 = FILL_AREA_STYLE ('',( #179 ) ) ;
#30 = EDGE_CURVE ( 'NONE', #207, #149, #156, .T. ) ;
#31 = CARTESIAN_POINT ( 'NONE',  ( 0.0000000000000000000, 0.0000000000000000000, -6.000000000000000900 ) ) ;
#32 = DIRECTION ( 'NONE',  ( 1.000000000000000000, 0.0000000000000000000, 0.0000000000000000000 ) ) ;
#33 = VERTEX_POINT ( 'NONE', #193 ) ;
#34 = DIRECTION ( 'NONE',  ( 0.0000000000000000000, 0.0000000000000000000, 1.000000000000000000 ) ) ;
#35 = DIRECTION ( 'NONE',  ( 0.0000000000000000000, 0.0000000000000000000, 1.000000000000000000 ) ) ;
#36 = DIRECTION ( 'NONE',  ( -0.0000000000000000000, -0.0000000000000000000, -1.000000000000000000 ) ) ;
#37 =( GEOMETRIC_REPRESENTATION_CONTEXT ( 3 ) GLOBAL_UNCERTAINTY_ASSIGNED_CONTEXT ( ( #25 ) ) GLOBAL_UNIT_ASSIGNED_CONTEXT ( ( #71, #197, #89 ) ) REPRESENTATION_CONTEXT ( 'NONE', 'WORKASPACE' ) );
#38 = APPLICATION_CONTEXT ( 'automotive_design' ) ;
#39 = APPLICATION_CONTEXT ( 'automotive_design' ) ;
#40 = ORIENTED_EDGE ( 'NONE', *, *, #230, .T. ) ;
#41 =( GEOMETRIC_REPRESENTATION_CONTEXT ( 3 ) GLOBAL_UNCERTAINTY_ASSIGNED_CONTEXT ( ( #153 ) ) GLOBAL_UNIT_ASSIGNED_CONTEXT ( ( #96, #229, #116 ) ) REPRESENTATION_CONTEXT ( 'NONE', 'WORKASPACE' ) );
#42 = EDGE_CURVE ( 'NONE', #12, #43, #211, .T. ) ;
#43 = VERTEX_POINT ( 'NONE', #6 ) ;
#44 = ADVANCED_FACE ( 'NONE', ( #202 ), #237, .F. ) ;
#45 = MECHANICAL_DESIGN_GEOMETRIC_PRESENTATION_REPRESENTATION (  '', ( #87 ), #37 ) ;
#46 = DIRECTION ( 'NONE',  ( 0.0000000000000000000, 0.0000000000000000000, -1.000000000000000000 ) ) ;
#47 = DIRECTION ( 'NONE',  ( -0.0000000000000000000, -0.0000000000000000000, -1.000000000000000000 ) ) ;
#48 = SURFACE_STYLE_USAGE ( .BOTH. , #161 ) ;
#49 = MANIFOLD_SOLID_BREP ( 'Chamfer1', #18 ) ;
#50 = ORIENTED_EDGE ( 'NONE', *, *, #1, .T. ) ;
#51 = DIRECTION ( 'NONE',  ( 1.000000000000000000, 0.0000000000000000000, 0.0000000000000000000 ) ) ;
#52 = CARTESIAN_POINT ( 'NONE',  ( 0.0000000000000000000, 0.0000000000000000000, -5.969999999999992600 ) ) ;
#53 = CARTESIAN_POINT ( 'NONE',  ( 0.0000000000000000000, 0.0000000000000000000, 6.000000000000000900 ) ) ;
#54 = MECHANICAL_DESIGN_GEOMETRIC_PRESENTATION_REPRESENTATION (  '', ( #83 ), #41 ) ;
#55 = FACE_OUTER_BOUND ( 'NONE', #125, .T. ) ;
#56 = DIRECTION ( 'NONE',  ( -1.000000000000000000, 0.0000000000000000000, 0.0000000000000000000 ) ) ;
#57 = FILL_AREA_STYLE ('',( #170 ) ) ;
#58 = LINE ( 'NONE', #78, #68 ) ;
#59 = ORIENTED_EDGE ( 'NONE', *, *, #212, .F. ) ;
#60 = EDGE_CURVE ( 'NONE', #190, #33, #150, .T. ) ;
#61 = VECTOR ( 'NONE', #47, 39.37007874015748100 ) ;
#62 = PRESENTATION_LAYER_ASSIGNMENT (  '', '', ( #87 ) ) ;
#63 = CIRCLE ( 'NONE', #137, 0.1250000000000000000 ) ;
#64 = ORIENTED_EDGE ( 'NONE', *, *, #42, .T. ) ;
#65 = PRESENTATION_LAYER_ASSIGNMENT (  '', '', ( #83 ) ) ;
#66 = ADVANCED_FACE ( 'NONE', ( #55 ), #121, .T. ) ;
#67 = DIMENSIONAL_EXPONENTS ( 1.000000000000000000, 0.0000000000000000000, 0.0000000000000000000, 0.0000000000000000000, 0.0000000000000000000, 0.0000000000000000000, 0.0000000000000000000 ) ;
#68 = VECTOR ( 'NONE', #204, 39.37007874015748100 ) ;
#69 = ORIENTED_EDGE ( 'NONE', *, *, #187, .T. ) ;
#70 = UNCERTAINTY_MEASURE_WITH_UNIT (LENGTH_MEASURE( 1.000000000000000100E-005 ), #228, 'distance_accuracy_value', 'NONE');
#71 =( CONVERSION_BASED_UNIT ( 'INCH', #92 ) LENGTH_UNIT ( ) NAMED_UNIT ( #178 ) );
#72 = EDGE_CURVE ( 'NONE', #33, #190, #173, .T. ) ;
#73 = DIRECTION ( 'NONE',  ( -0.0000000000000000000, -0.0000000000000000000, 1.000000000000000000 ) ) ;
#74 = ORIENTED_EDGE ( 'NONE', *, *, #30, .F. ) ;
#75 = PRODUCT_DEFINITION_SHAPE ( 'NONE', 'NONE',  #235 ) ;
#76 = CARTESIAN_POINT ( 'NONE',  ( 0.09499999999999118900, 0.0000000000000000000, -6.000000000000000900 ) ) ;
#77 = DIRECTION ( 'NONE',  ( -0.0000000000000000000, -0.0000000000000000000, 1.000000000000000000 ) ) ;
#78 = CARTESIAN_POINT ( 'NONE',  ( 0.1250000000000000000, 1.530808498934191200E-017, 6.000000000000000900 ) ) ;
#79 = AXIS2_PLACEMENT_3D ( 'NONE', #194, #123, #8 ) ;
#80 = VECTOR ( 'NONE', #108, 39.37007874015748100 ) ;
#81 = SURFACE_STYLE_USAGE ( .BOTH. , #186 ) ;
#82 = ORIENTED_EDGE ( 'NONE', *, *, #238, .F. ) ;
#83 = STYLED_ITEM ( 'NONE', ( #93 ), #113 ) ;
#84 = LINE ( 'NONE', #127, #210 ) ;
#85 = ORIENTED_EDGE ( 'NONE', *, *, #72, .T. ) ;
#86 = CARTESIAN_POINT ( 'NONE',  ( 0.0000000000000000000, 0.0000000000000000000, 5.970000000000002400 ) ) ;
#87 = STYLED_ITEM ( 'NONE', ( #144 ), #49 ) ;
#88 = CARTESIAN_POINT ( 'NONE',  ( 0.0000000000000000000, 0.0000000000000000000, 6.000000000000000900 ) ) ;
#89 =( NAMED_UNIT ( * ) SI_UNIT ( $, .STERADIAN. ) SOLID_ANGLE_UNIT ( ) );
#90 = EDGE_LOOP ( 'NONE', ( #213, #3, #40, #74 ) ) ;
#91 = AXIS2_PLACEMENT_3D ( 'NONE', #244, #36, #226 ) ;
#92 = LENGTH_MEASURE_WITH_UNIT ( LENGTH_MEASURE( 0.02539999999999999900 ), #180 );
#93 = PRESENTATION_STYLE_ASSIGNMENT (( #81 ) ) ;
#94 = CARTESIAN_POINT ( 'NONE',  ( 0.0000000000000000000, 0.0000000000000000000, 0.0000000000000000000 ) ) ;
#95 =( LENGTH_UNIT ( ) NAMED_UNIT ( * ) SI_UNIT ( $, .METRE. ) );
#96 =( CONVERSION_BASED_UNIT ( 'INCH', #185 ) LENGTH_UNIT ( ) NAMED_UNIT ( #67 ) );
#97 = ORIENTED_EDGE ( 'NONE', *, *, #42, .F. ) ;
#98 = COLOUR_RGB ( '',0.7921568627450980000, 0.8196078431372548800, 0.9333333333333333500 ) ;
#99 = ORIENTED_EDGE ( 'NONE', *, *, #175, .T. ) ;
#100 = COLOUR_RGB ( '',0.7921568627450980000, 0.8196078431372548800, 0.9333333333333333500 ) ;
#101 =( GEOMETRIC_REPRESENTATION_CONTEXT ( 3 ) GLOBAL_UNCERTAINTY_ASSIGNED_CONTEXT ( ( #70 ) ) GLOBAL_UNIT_ASSIGNED_CONTEXT ( ( #228, #111, #246 ) ) REPRESENTATION_CONTEXT ( 'NONE', 'WORKASPACE' ) );
#102 = DIMENSIONAL_EXPONENTS ( 1.000000000000000000, 0.0000000000000000000, 0.0000000000000000000, 0.0000000000000000000, 0.0000000000000000000, 0.0000000000000000000, 0.0000000000000000000 ) ;
#103 = DIRECTION ( 'NONE',  ( 1.000000000000000000, 0.0000000000000000000, 0.0000000000000000000 ) ) ;
#104 = DIRECTION ( 'NONE',  ( 1.000000000000000000, 0.0000000000000000000, 0.0000000000000000000 ) ) ;
#105 = EDGE_LOOP ( 'NONE', ( #155, #85 ) ) ;
#106 = CYLINDRICAL_SURFACE ( 'NONE', #91, 0.1250000000000000000 ) ;
#107 = CARTESIAN_POINT ( 'NONE',  ( 0.0000000000000000000, 0.0000000000000000000, 6.000000000000000900 ) ) ;
#108 = DIRECTION ( 'NONE',  ( -0.7071067811865553400, 0.0000000000000000000, -0.7071067811865396900 ) ) ;
#109 = DIRECTION ( 'NONE',  ( 0.0000000000000000000, 0.0000000000000000000, -1.000000000000000000 ) ) ;
#110 = LINE ( 'NONE', #223, #61 ) ;
#111 =( NAMED_UNIT ( * ) PLANE_ANGLE_UNIT ( ) SI_UNIT ( $, .RADIAN. ) );
#112 = AXIS2_PLACEMENT_3D ( 'NONE', #88, #219, #104 ) ;
#113 = ADVANCED_BREP_SHAPE_REPRESENTATION ( 'RPSS04-12', ( #49, #248 ), #101 ) ;
#114 = VECTOR ( 'NONE', #14, 39.37007874015748100 ) ;
#115 = ORIENTED_EDGE ( 'NONE', *, *, #21, .F. ) ;
#116 =( NAMED_UNIT ( * ) SI_UNIT ( $, .STERADIAN. ) SOLID_ANGLE_UNIT ( ) );
#117 = VERTEX_POINT ( 'NONE', #139 ) ;
#118 = CONICAL_SURFACE ( 'NONE', #215, 0.1250000000000000000, 0.7853981633974593800 ) ;
#119 = ORIENTED_EDGE ( 'NONE', *, *, #159, .T. ) ;
#120 = ADVANCED_FACE ( 'NONE', ( #131 ), #217, .T. ) ;
#121 = CONICAL_SURFACE ( 'NONE', #5, 0.09500000000000101400, 0.7853981633974593800 ) ;
#122 = AXIS2_PLACEMENT_3D ( 'NONE', #138, #28, #158 ) ;
#123 = DIRECTION ( 'NONE',  ( 0.0000000000000000000, 0.0000000000000000000, 1.000000000000000000 ) ) ;
#124 = DIRECTION ( 'NONE',  ( -0.0000000000000000000, -0.0000000000000000000, -1.000000000000000000 ) ) ;
#125 = EDGE_LOOP ( 'NONE', ( #166, #97, #26, #115 ) ) ;
#126 = PLANE ( 'NONE',  #177 ) ;
#127 = CARTESIAN_POINT ( 'NONE',  ( 0.09500000000000101400, 1.163414459189998100E-017, 6.000000000000000900 ) ) ;
#128 = CARTESIAN_POINT ( 'NONE',  ( -0.1250000000000000000, 1.530808498934191500E-017, -5.969999999999992600 ) ) ;
#129 = AXIS2_PLACEMENT_3D ( 'NONE', #53, #183, #182 ) ;
#130 = CARTESIAN_POINT ( 'NONE',  ( 0.1250000000000000000, 0.0000000000000000000, -5.969999999999992600 ) ) ;
#131 = FACE_OUTER_BOUND ( 'NONE', #90, .T. ) ;
#132 = DIRECTION ( 'NONE',  ( 0.0000000000000000000, 0.0000000000000000000, 1.000000000000000000 ) ) ;
#133 = VERTEX_POINT ( 'NONE', #163 ) ;
#134 = AXIS2_PLACEMENT_3D ( 'NONE', #86, #216, #103 ) ;
#135 = ORIENTED_EDGE ( 'NONE', *, *, #230, .F. ) ;
#136 = ADVANCED_FACE ( 'NONE', ( #249 ), #118, .T. ) ;
#137 = AXIS2_PLACEMENT_3D ( 'NONE', #184, #77, #203 ) ;
#138 = CARTESIAN_POINT ( 'NONE',  ( 0.0000000000000000000, 0.0000000000000000000, -5.969999999999992600 ) ) ;
#139 = CARTESIAN_POINT ( 'NONE',  ( -0.1250000000000000000, 0.0000000000000000000, 5.970000000000002400 ) ) ;
#140 = ORIENTED_EDGE ( 'NONE', *, *, #1, .F. ) ;
#141 = CARTESIAN_POINT ( 'NONE',  ( 0.0000000000000000000, 0.0000000000000000000, -5.969999999999992600 ) ) ;
#142 = PRODUCT_DEFINITION_CONTEXT ( 'detailed design', #39, 'design' ) ;
#143 = CARTESIAN_POINT ( 'NONE',  ( 0.0000000000000000000, 0.0000000000000000000, 6.000000000000000900 ) ) ;
#144 = PRESENTATION_STYLE_ASSIGNMENT (( #48 ) ) ;
#145 = CARTESIAN_POINT ( 'NONE',  ( -0.1250000000000000000, 0.0000000000000000000, -5.969999999999992600 ) ) ;
#146 = EDGE_CURVE ( 'NONE', #12, #117, #169, .T. ) ;
#147 = PRODUCT_CONTEXT ( 'NONE', #38, 'mechanical' ) ;
#148 = CONICAL_SURFACE ( 'NONE', #152, 0.09500000000000101400, 0.7853981633974593800 ) ;
#149 = VERTEX_POINT ( 'NONE', #241 ) ;
#150 = CIRCLE ( 'NONE', #23, 0.09499999999999118900 ) ;
#151 = LENGTH_MEASURE_WITH_UNIT ( LENGTH_MEASURE( 0.02539999999999999900 ), #95 );
#152 = AXIS2_PLACEMENT_3D ( 'NONE', #201, #243, #56 ) ;
#153 = UNCERTAINTY_MEASURE_WITH_UNIT (LENGTH_MEASURE( 1.000000000000000100E-005 ), #96, 'distance_accuracy_value', 'NONE');
#154 = LINE ( 'NONE', #130, #2 ) ;
#155 = ORIENTED_EDGE ( 'NONE', *, *, #60, .T. ) ;
#156 = CIRCLE ( 'NONE', #122, 0.1250000000000000000 ) ;
#157 = ADVANCED_FACE ( 'NONE', ( #24 ), #126, .T. ) ;
#158 = DIRECTION ( 'NONE',  ( 1.000000000000000000, 0.0000000000000000000, 0.0000000000000000000 ) ) ;
#159 = EDGE_CURVE ( 'NONE', #117, #133, #27, .T. ) ;
#160 = FACE_OUTER_BOUND ( 'NONE', #222, .T. ) ;
#161 = SURFACE_SIDE_STYLE ('',( #191 ) ) ;
#162 = DIRECTION ( 'NONE',  ( -0.0000000000000000000, -0.0000000000000000000, -1.000000000000000000 ) ) ;
#163 = CARTESIAN_POINT ( 'NONE',  ( 0.1250000000000000000, 1.530808498934191200E-017, 5.970000000000002400 ) ) ;
#164 = DIRECTION ( 'NONE',  ( 1.000000000000000000, 0.0000000000000000000, -0.0000000000000000000 ) ) ;
#165 = ORIENTED_EDGE ( 'NONE', *, *, #159, .F. ) ;
#166 = ORIENTED_EDGE ( 'NONE', *, *, #187, .F. ) ;
#167 = DIRECTION ( 'NONE',  ( 1.000000000000000000, 0.0000000000000000000, 0.0000000000000000000 ) ) ;
#168 = AXIS2_PLACEMENT_3D ( 'NONE', #143, #35, #167 ) ;
#169 = LINE ( 'NONE', #200, #80 ) ;
#170 = FILL_AREA_STYLE_COLOUR ( '', #98 ) ;
#171 = APPLICATION_PROTOCOL_DEFINITION ( 'draft international standard', 'automotive_design', 1998, #39 ) ;
#172 = ORIENTED_EDGE ( 'NONE', *, *, #212, .T. ) ;
#173 = CIRCLE ( 'NONE', #245, 0.09499999999999118900 ) ;
#174 = SHAPE_DEFINITION_REPRESENTATION ( #75, #113 ) ;
#175 = EDGE_CURVE ( 'NONE', #43, #12, #227, .T. ) ;
#176 = ORIENTED_EDGE ( 'NONE', *, *, #30, .T. ) ;
#177 = AXIS2_PLACEMENT_3D ( 'NONE', #221, #34, #164 ) ;
#178 = DIMENSIONAL_EXPONENTS ( 1.000000000000000000, 0.0000000000000000000, 0.0000000000000000000, 0.0000000000000000000, 0.0000000000000000000, 0.0000000000000000000, 0.0000000000000000000 ) ;
#179 = FILL_AREA_STYLE_COLOUR ( '', #100 ) ;
#180 =( LENGTH_UNIT ( ) NAMED_UNIT ( * ) SI_UNIT ( $, .METRE. ) );
#181 = ORIENTED_EDGE ( 'NONE', *, *, #72, .F. ) ;
#182 = DIRECTION ( 'NONE',  ( -1.000000000000000000, 0.0000000000000000000, 0.0000000000000000000 ) ) ;
#183 = DIRECTION ( 'NONE',  ( -0.0000000000000000000, -0.0000000000000000000, -1.000000000000000000 ) ) ;
#184 = CARTESIAN_POINT ( 'NONE',  ( 0.0000000000000000000, 0.0000000000000000000, -5.969999999999992600 ) ) ;
#185 = LENGTH_MEASURE_WITH_UNIT ( LENGTH_MEASURE( 0.02539999999999999900 ), #205 );
#186 = SURFACE_SIDE_STYLE ('',( #19 ) ) ;
#187 = EDGE_CURVE ( 'NONE', #43, #133, #84, .T. ) ;
#188 = ORIENTED_EDGE ( 'NONE', *, *, #238, .T. ) ;
#189 = AXIS2_PLACEMENT_3D ( 'NONE', #224, #109, #242 ) ;
#190 = VERTEX_POINT ( 'NONE', #76 ) ;
#191 = SURFACE_STYLE_FILL_AREA ( #29 ) ;
#192 = ADVANCED_FACE ( 'NONE', ( #160 ), #7, .T. ) ;
#193 = CARTESIAN_POINT ( 'NONE',  ( -0.09499999999999118900, 1.347111479062034500E-017, -6.000000000000000900 ) ) ;
#194 = CARTESIAN_POINT ( 'NONE',  ( 0.0000000000000000000, 0.0000000000000000000, -6.000000000000000900 ) ) ;
#195 = EDGE_CURVE ( 'NONE', #33, #207, #17, .T. ) ;
#196 = FACE_OUTER_BOUND ( 'NONE', #239, .T. ) ;
#197 =( NAMED_UNIT ( * ) PLANE_ANGLE_UNIT ( ) SI_UNIT ( $, .RADIAN. ) );
#198 = ORIENTED_EDGE ( 'NONE', *, *, #146, .F. ) ;
#199 = DIRECTION ( 'NONE',  ( -0.0000000000000000000, -0.0000000000000000000, 1.000000000000000000 ) ) ;
#200 = CARTESIAN_POINT ( 'NONE',  ( -0.09500000000000101400, 0.0000000000000000000, 6.000000000000000900 ) ) ;
#201 = CARTESIAN_POINT ( 'NONE',  ( 0.0000000000000000000, 0.0000000000000000000, 6.000000000000000900 ) ) ;
#202 = FACE_OUTER_BOUND ( 'NONE', #105, .T. ) ;
#203 = DIRECTION ( 'NONE',  ( 1.000000000000000000, 0.0000000000000000000, 0.0000000000000000000 ) ) ;
#204 = DIRECTION ( 'NONE',  ( -0.0000000000000000000, -0.0000000000000000000, -1.000000000000000000 ) ) ;
#205 =( LENGTH_UNIT ( ) NAMED_UNIT ( * ) SI_UNIT ( $, .METRE. ) );
#206 = FACE_OUTER_BOUND ( 'NONE', #209, .T. ) ;
#207 = VERTEX_POINT ( 'NONE', #145 ) ;
#208 = PRODUCT_RELATED_PRODUCT_CATEGORY ( 'part', '', ( #218 ) ) ;
#209 = EDGE_LOOP ( 'NONE', ( #231, #69, #165, #198 ) ) ;
#210 = VECTOR ( 'NONE', #13, 39.37007874015748100 ) ;
#211 = CIRCLE ( 'NONE', #112, 0.09500000000000101400 ) ;
#212 = EDGE_CURVE ( 'NONE', #149, #207, #63, .T. ) ;
#213 = ORIENTED_EDGE ( 'NONE', *, *, #195, .F. ) ;
#214 = ADVANCED_FACE ( 'NONE', ( #206 ), #148, .T. ) ;
#215 = AXIS2_PLACEMENT_3D ( 'NONE', #52, #73, #32 ) ;
#216 = DIRECTION ( 'NONE',  ( 0.0000000000000000000, 0.0000000000000000000, -1.000000000000000000 ) ) ;
#217 = CONICAL_SURFACE ( 'NONE', #232, 0.1250000000000000000, 0.7853981633974593800 ) ;
#218 = PRODUCT ( 'RPSS04-12', 'RPSS04-12', '', ( #147 ) ) ;
#219 = DIRECTION ( 'NONE',  ( 0.0000000000000000000, 0.0000000000000000000, 1.000000000000000000 ) ) ;
#220 = DIRECTION ( 'NONE',  ( 1.000000000000000000, 0.0000000000000000000, 0.0000000000000000000 ) ) ;
#221 = CARTESIAN_POINT ( 'NONE',  ( 0.0000000000000000000, 0.0000000000000000000, 6.000000000000000900 ) ) ;
#222 = EDGE_LOOP ( 'NONE', ( #119, #188, #172, #140 ) ) ;
#223 = CARTESIAN_POINT ( 'NONE',  ( -0.1250000000000000000, 0.0000000000000000000, 6.000000000000000900 ) ) ;
#224 = CARTESIAN_POINT ( 'NONE',  ( 0.0000000000000000000, 0.0000000000000000000, 5.970000000000002400 ) ) ;
#225 = PRODUCT_DEFINITION_FORMATION_WITH_SPECIFIED_SOURCE ( 'ANY', '', #218, .NOT_KNOWN. ) ;
#226 = DIRECTION ( 'NONE',  ( -1.000000000000000000, 0.0000000000000000000, 0.0000000000000000000 ) ) ;
#227 = CIRCLE ( 'NONE', #168, 0.09500000000000101400 ) ;
#228 =( CONVERSION_BASED_UNIT ( 'INCH', #151 ) LENGTH_UNIT ( ) NAMED_UNIT ( #102 ) );
#229 =( NAMED_UNIT ( * ) PLANE_ANGLE_UNIT ( ) SI_UNIT ( $, .RADIAN. ) );
#230 = EDGE_CURVE ( 'NONE', #190, #149, #154, .T. ) ;
#231 = ORIENTED_EDGE ( 'NONE', *, *, #175, .F. ) ;
#232 = AXIS2_PLACEMENT_3D ( 'NONE', #141, #199, #220 ) ;
#233 = CARTESIAN_POINT ( 'NONE',  ( -0.09500000000000101400, 0.0000000000000000000, 6.000000000000000900 ) ) ;
#234 = EDGE_LOOP ( 'NONE', ( #181, #22, #59, #135 ) ) ;
#235 = PRODUCT_DEFINITION ( 'UNKNOWN', '', #225, #142 ) ;
#236 = ADVANCED_FACE ( 'NONE', ( #196 ), #106, .T. ) ;
#237 = PLANE ( 'NONE',  #79 ) ;
#238 = EDGE_CURVE ( 'NONE', #133, #149, #58, .T. ) ;
#239 = EDGE_LOOP ( 'NONE', ( #82, #9, #50, #176 ) ) ;
#240 = CARTESIAN_POINT ( 'NONE',  ( 0.0000000000000000000, 0.0000000000000000000, -6.000000000000000900 ) ) ;
#241 = CARTESIAN_POINT ( 'NONE',  ( 0.1250000000000000000, 1.530808498934191200E-017, -5.969999999999992600 ) ) ;
#242 = DIRECTION ( 'NONE',  ( 1.000000000000000000, 0.0000000000000000000, 0.0000000000000000000 ) ) ;
#243 = DIRECTION ( 'NONE',  ( 0.0000000000000000000, 0.0000000000000000000, -1.000000000000000000 ) ) ;
#244 = CARTESIAN_POINT ( 'NONE',  ( 0.0000000000000000000, 0.0000000000000000000, 6.000000000000000900 ) ) ;
#245 = AXIS2_PLACEMENT_3D ( 'NONE', #240, #124, #11 ) ;
#246 =( NAMED_UNIT ( * ) SI_UNIT ( $, .STERADIAN. ) SOLID_ANGLE_UNIT ( ) );
#247 = EDGE_LOOP ( 'NONE', ( #64, #99 ) ) ;
#248 = AXIS2_PLACEMENT_3D ( 'NONE', #94, #132, #20 ) ;
#249 = FACE_OUTER_BOUND ( 'NONE', #234, .T. ) ;
ENDSEC;
END-ISO-10303-21;
