ISO-10303-21;
HEADER;
FILE_DESCRIPTION (( 'STEP AP214' ),
    '1' );
FILE_NAME ('RPSS04-24.step',
    '2017-08-09T17:44:04',
    ( '' ),
    ( '' ),
    'SwSTEP 2.0',
    'SolidWorks 2017',
    '' );
FILE_SCHEMA (( 'AUTOMOTIVE_DESIGN' ));
ENDSEC;

DATA;
#1 = CIRCLE ( 'NONE', #174, 0.09499999999998025300 ) ;
#2 = AXIS2_PLACEMENT_3D ( 'NONE', #196, #237, #122 ) ;
#3 = ORIENTED_EDGE ( 'NONE', *, *, #37, .T. ) ;
#4 = CARTESIAN_POINT ( 'NONE',  ( -0.09499999999998025300, 1.347111479061967200E-017, -12.00000000000000200 ) ) ;
#5 = CARTESIAN_POINT ( 'NONE',  ( -0.09500000000000866100, 0.0000000000000000000, 12.00000000000000200 ) ) ;
#6 = CARTESIAN_POINT ( 'NONE',  ( 0.0000000000000000000, 0.0000000000000000000, 12.00000000000000200 ) ) ;
#7 = FACE_OUTER_BOUND ( 'NONE', #233, .T. ) ;
#8 = MANIFOLD_SOLID_BREP ( 'Chamfer1', #151 ) ;
#9 = ADVANCED_FACE ( 'NONE', ( #228 ), #119, .T. ) ;
#10 = VERTEX_POINT ( 'NONE', #111 ) ;
#11 = EDGE_CURVE ( 'NONE', #178, #93, #124, .T. ) ;
#12 = DIRECTION ( 'NONE',  ( 1.000000000000000000, 0.0000000000000000000, 0.0000000000000000000 ) ) ;
#13 = CIRCLE ( 'NONE', #153, 0.09500000000000866100 ) ;
#14 = DIRECTION ( 'NONE',  ( -0.0000000000000000000, -0.0000000000000000000, -1.000000000000000000 ) ) ;
#15 = DIRECTION ( 'NONE',  ( -1.000000000000000000, 0.0000000000000000000, 0.0000000000000000000 ) ) ;
#16 = FILL_AREA_STYLE_COLOUR ( '', #109 ) ;
#17 = DIRECTION ( 'NONE',  ( -0.0000000000000000000, -0.0000000000000000000, 1.000000000000000000 ) ) ;
#18 = AXIS2_PLACEMENT_3D ( 'NONE', #176, #62, #197 ) ;
#19 = ORIENTED_EDGE ( 'NONE', *, *, #23, .T. ) ;
#20 = CIRCLE ( 'NONE', #41, 0.09500000000000866100 ) ;
#21 =( GEOMETRIC_REPRESENTATION_CONTEXT ( 3 ) GLOBAL_UNCERTAINTY_ASSIGNED_CONTEXT ( ( #193 ) ) GLOBAL_UNIT_ASSIGNED_CONTEXT ( ( #86, #227, #105 ) ) REPRESENTATION_CONTEXT ( 'NONE', 'WORKASPACE' ) );
#22 = ORIENTED_EDGE ( 'NONE', *, *, #226, .F. ) ;
#23 = EDGE_CURVE ( 'NONE', #76, #155, #20, .T. ) ;
#24 = CARTESIAN_POINT ( 'NONE',  ( 0.0000000000000000000, 0.0000000000000000000, -11.96999999999997800 ) ) ;
#25 = DIRECTION ( 'NONE',  ( -0.0000000000000000000, -0.0000000000000000000, 1.000000000000000000 ) ) ;
#26 = DIRECTION ( 'NONE',  ( 0.0000000000000000000, 0.0000000000000000000, -1.000000000000000000 ) ) ;
#27 = ADVANCED_FACE ( 'NONE', ( #167 ), #152, .F. ) ;
#28 = ORIENTED_EDGE ( 'NONE', *, *, #236, .T. ) ;
#29 = FILL_AREA_STYLE_COLOUR ( '', #117 ) ;
#30 = APPLICATION_CONTEXT ( 'automotive_design' ) ;
#31 = CARTESIAN_POINT ( 'NONE',  ( 0.09499999999998025300, 0.0000000000000000000, -12.00000000000000200 ) ) ;
#32 = MECHANICAL_DESIGN_GEOMETRIC_PRESENTATION_REPRESENTATION (  '', ( #60 ), #21 ) ;
#33 = DIRECTION ( 'NONE',  ( -0.7071067811865554600, 8.659560562355029000E-017, 0.7071067811865396900 ) ) ;
#34 = UNCERTAINTY_MEASURE_WITH_UNIT (LENGTH_MEASURE( 1.000000000000000100E-005 ), #104, 'distance_accuracy_value', 'NONE');
#35 = DIRECTION ( 'NONE',  ( -1.000000000000000000, 0.0000000000000000000, 0.0000000000000000000 ) ) ;
#36 = ORIENTED_EDGE ( 'NONE', *, *, #215, .F. ) ;
#37 = EDGE_CURVE ( 'NONE', #171, #40, #173, .T. ) ;
#38 = CIRCLE ( 'NONE', #95, 0.1250000000000000000 ) ;
#39 = LINE ( 'NONE', #232, #183 ) ;
#40 = VERTEX_POINT ( 'NONE', #4 ) ;
#41 = AXIS2_PLACEMENT_3D ( 'NONE', #79, #220, #98 ) ;
#42 = DIRECTION ( 'NONE',  ( 1.000000000000000000, 0.0000000000000000000, 0.0000000000000000000 ) ) ;
#43 = SURFACE_STYLE_FILL_AREA ( #56 ) ;
#44 = CARTESIAN_POINT ( 'NONE',  ( 0.0000000000000000000, 0.0000000000000000000, 12.00000000000000200 ) ) ;
#45 = DIRECTION ( 'NONE',  ( 0.0000000000000000000, 0.0000000000000000000, 1.000000000000000000 ) ) ;
#46 = FACE_OUTER_BOUND ( 'NONE', #164, .T. ) ;
#47 = PRESENTATION_LAYER_ASSIGNMENT (  '', '', ( #60 ) ) ;
#48 = ORIENTED_EDGE ( 'NONE', *, *, #194, .T. ) ;
#49 = ADVANCED_FACE ( 'NONE', ( #222 ), #59, .T. ) ;
#50 = EDGE_LOOP ( 'NONE', ( #224, #103, #48, #175 ) ) ;
#51 = FILL_AREA_STYLE ('',( #29 ) ) ;
#52 = EDGE_CURVE ( 'NONE', #76, #10, #69, .T. ) ;
#53 = CARTESIAN_POINT ( 'NONE',  ( 0.0000000000000000000, 0.0000000000000000000, 11.97000000000001000 ) ) ;
#54 = CONICAL_SURFACE ( 'NONE', #217, 0.09500000000000866100, 0.7853981633974594900 ) ;
#55 = CARTESIAN_POINT ( 'NONE',  ( -0.1250000000000000000, 0.0000000000000000000, -11.96999999999997800 ) ) ;
#56 = FILL_AREA_STYLE ('',( #16 ) ) ;
#57 = AXIS2_PLACEMENT_3D ( 'NONE', #24, #159, #42 ) ;
#58 = ORIENTED_EDGE ( 'NONE', *, *, #194, .F. ) ;
#59 = CONICAL_SURFACE ( 'NONE', #240, 0.1250000000000000000, 0.7853981633974593800 ) ;
#60 = STYLED_ITEM ( 'NONE', ( #213 ), #238 ) ;
#61 = ORIENTED_EDGE ( 'NONE', *, *, #248, .F. ) ;
#62 = DIRECTION ( 'NONE',  ( -0.0000000000000000000, -0.0000000000000000000, -1.000000000000000000 ) ) ;
#63 = FACE_OUTER_BOUND ( 'NONE', #128, .T. ) ;
#64 = PRODUCT_DEFINITION_SHAPE ( 'NONE', 'NONE',  #223 ) ;
#65 = AXIS2_PLACEMENT_3D ( 'NONE', #136, #133, #168 ) ;
#66 = EDGE_LOOP ( 'NONE', ( #36, #118, #97, #188 ) ) ;
#67 = CARTESIAN_POINT ( 'NONE',  ( 0.0000000000000000000, 0.0000000000000000000, 11.97000000000001000 ) ) ;
#68 = SURFACE_STYLE_USAGE ( .BOTH. , #182 ) ;
#69 = LINE ( 'NONE', #5, #162 ) ;
#70 = DIRECTION ( 'NONE',  ( 1.000000000000000000, 0.0000000000000000000, 0.0000000000000000000 ) ) ;
#71 = CARTESIAN_POINT ( 'NONE',  ( 0.0000000000000000000, 0.0000000000000000000, 12.00000000000000200 ) ) ;
#72 = SURFACE_STYLE_USAGE ( .BOTH. , #186 ) ;
#73 = DIRECTION ( 'NONE',  ( -0.0000000000000000000, -0.0000000000000000000, -1.000000000000000000 ) ) ;
#74 = ORIENTED_EDGE ( 'NONE', *, *, #215, .T. ) ;
#75 = UNCERTAINTY_MEASURE_WITH_UNIT (LENGTH_MEASURE( 1.000000000000000100E-005 ), #90, 'distance_accuracy_value', 'NONE');
#76 = VERTEX_POINT ( 'NONE', #221 ) ;
#77 =( GEOMETRIC_REPRESENTATION_CONTEXT ( 3 ) GLOBAL_UNCERTAINTY_ASSIGNED_CONTEXT ( ( #75 ) ) GLOBAL_UNIT_ASSIGNED_CONTEXT ( ( #90, #231, #115 ) ) REPRESENTATION_CONTEXT ( 'NONE', 'WORKASPACE' ) );
#78 = CARTESIAN_POINT ( 'NONE',  ( 0.09500000000000866100, 1.347111479062141300E-017, 12.00000000000000200 ) ) ;
#79 = CARTESIAN_POINT ( 'NONE',  ( 0.0000000000000000000, 0.0000000000000000000, 12.00000000000000200 ) ) ;
#80 = CARTESIAN_POINT ( 'NONE',  ( 0.0000000000000000000, 0.0000000000000000000, -11.96999999999998100 ) ) ;
#81 = CARTESIAN_POINT ( 'NONE',  ( 0.0000000000000000000, 0.0000000000000000000, 12.00000000000000200 ) ) ;
#82 = AXIS2_PLACEMENT_3D ( 'NONE', #71, #230, #35 ) ;
#83 = ORIENTED_EDGE ( 'NONE', *, *, #144, .F. ) ;
#84 = ADVANCED_FACE ( 'NONE', ( #108 ), #123, .T. ) ;
#85 = DIRECTION ( 'NONE',  ( 1.000000000000000000, 0.0000000000000000000, 0.0000000000000000000 ) ) ;
#86 =( CONVERSION_BASED_UNIT ( 'INCH', #96 ) LENGTH_UNIT ( ) NAMED_UNIT ( #204 ) );
#87 = PRODUCT ( 'RPSS04-24', 'RPSS04-24', '', ( #147 ) ) ;
#88 = VECTOR ( 'NONE', #169, 39.37007874015748100 ) ;
#89 = ORIENTED_EDGE ( 'NONE', *, *, #181, .T. ) ;
#90 =( CONVERSION_BASED_UNIT ( 'INCH', #184 ) LENGTH_UNIT ( ) NAMED_UNIT ( #241 ) );
#91 = DIRECTION ( 'NONE',  ( -0.0000000000000000000, -0.0000000000000000000, -1.000000000000000000 ) ) ;
#92 = MECHANICAL_DESIGN_GEOMETRIC_PRESENTATION_REPRESENTATION (  '', ( #121 ), #77 ) ;
#93 = VERTEX_POINT ( 'NONE', #161 ) ;
#94 = VECTOR ( 'NONE', #33, 39.37007874015748100 ) ;
#95 = AXIS2_PLACEMENT_3D ( 'NONE', #67, #205, #85 ) ;
#96 = LENGTH_MEASURE_WITH_UNIT ( LENGTH_MEASURE( 0.02539999999999999900 ), #207 );
#97 = ORIENTED_EDGE ( 'NONE', *, *, #226, .T. ) ;
#98 = DIRECTION ( 'NONE',  ( 1.000000000000000000, 0.0000000000000000000, 0.0000000000000000000 ) ) ;
#99 = DIRECTION ( 'NONE',  ( 0.0000000000000000000, 0.0000000000000000000, -1.000000000000000000 ) ) ;
#100 = LINE ( 'NONE', #212, #216 ) ;
#101 = ADVANCED_FACE ( 'NONE', ( #63 ), #54, .T. ) ;
#102 = PRESENTATION_LAYER_ASSIGNMENT (  '', '', ( #121 ) ) ;
#103 = ORIENTED_EDGE ( 'NONE', *, *, #37, .F. ) ;
#104 =( CONVERSION_BASED_UNIT ( 'INCH', #170 ) LENGTH_UNIT ( ) NAMED_UNIT ( #143 ) );
#105 =( NAMED_UNIT ( * ) SI_UNIT ( $, .STERADIAN. ) SOLID_ANGLE_UNIT ( ) );
#106 = DIRECTION ( 'NONE',  ( -0.0000000000000000000, -0.0000000000000000000, -1.000000000000000000 ) ) ;
#107 = SHAPE_DEFINITION_REPRESENTATION ( #64, #238 ) ;
#108 = FACE_OUTER_BOUND ( 'NONE', #195, .T. ) ;
#109 = COLOUR_RGB ( '',0.7921568627450980000, 0.8196078431372548800, 0.9333333333333333500 ) ;
#110 = CARTESIAN_POINT ( 'NONE',  ( 0.0000000000000000000, 0.0000000000000000000, 12.00000000000000200 ) ) ;
#111 = CARTESIAN_POINT ( 'NONE',  ( -0.1250000000000000000, 0.0000000000000000000, 11.97000000000001000 ) ) ;
#112 = EDGE_LOOP ( 'NONE', ( #206, #140, #120, #58 ) ) ;
#113 = AXIS2_PLACEMENT_3D ( 'NONE', #150, #106, #15 ) ;
#114 = CARTESIAN_POINT ( 'NONE',  ( 0.1250000000000000000, 1.530808498934191200E-017, 11.97000000000001000 ) ) ;
#115 =( NAMED_UNIT ( * ) SI_UNIT ( $, .STERADIAN. ) SOLID_ANGLE_UNIT ( ) );
#116 = CARTESIAN_POINT ( 'NONE',  ( 0.09500000000000866100, 1.163414459190091400E-017, 12.00000000000000200 ) ) ;
#117 = COLOUR_RGB ( '',0.7921568627450980000, 0.8196078431372548800, 0.9333333333333333500 ) ;
#118 = ORIENTED_EDGE ( 'NONE', *, *, #248, .T. ) ;
#119 = CONICAL_SURFACE ( 'NONE', #65, 0.1250000000000000000, 0.7853981633974593800 ) ;
#120 = ORIENTED_EDGE ( 'NONE', *, *, #181, .F. ) ;
#121 = STYLED_ITEM ( 'NONE', ( #244 ), #8 ) ;
#122 = DIRECTION ( 'NONE',  ( 1.000000000000000000, 0.0000000000000000000, -0.0000000000000000000 ) ) ;
#123 = PLANE ( 'NONE',  #203 ) ;
#124 = CIRCLE ( 'NONE', #57, 0.1250000000000000000 ) ;
#125 = DIRECTION ( 'NONE',  ( -1.000000000000000000, 0.0000000000000000000, 0.0000000000000000000 ) ) ;
#126 = AXIS2_PLACEMENT_3D ( 'NONE', #134, #17, #154 ) ;
#127 = ADVANCED_FACE ( 'NONE', ( #7 ), #200, .T. ) ;
#128 = EDGE_LOOP ( 'NONE', ( #158, #146, #235, #61 ) ) ;
#129 =( NAMED_UNIT ( * ) SI_UNIT ( $, .STERADIAN. ) SOLID_ANGLE_UNIT ( ) );
#130 = DIRECTION ( 'NONE',  ( 0.0000000000000000000, 0.0000000000000000000, 1.000000000000000000 ) ) ;
#131 = CARTESIAN_POINT ( 'NONE',  ( 0.0000000000000000000, 0.0000000000000000000, -12.00000000000000200 ) ) ;
#132 = DIRECTION ( 'NONE',  ( 1.000000000000000000, 0.0000000000000000000, 0.0000000000000000000 ) ) ;
#133 = DIRECTION ( 'NONE',  ( -0.0000000000000000000, -0.0000000000000000000, 1.000000000000000000 ) ) ;
#134 = CARTESIAN_POINT ( 'NONE',  ( 0.0000000000000000000, 0.0000000000000000000, -11.96999999999997800 ) ) ;
#135 = LINE ( 'NONE', #116, #199 ) ;
#136 = CARTESIAN_POINT ( 'NONE',  ( 0.0000000000000000000, 0.0000000000000000000, -11.96999999999998100 ) ) ;
#137 = EDGE_LOOP ( 'NONE', ( #3, #239 ) ) ;
#138 = EDGE_CURVE ( 'NONE', #40, #171, #1, .T. ) ;
#139 =( GEOMETRIC_REPRESENTATION_CONTEXT ( 3 ) GLOBAL_UNCERTAINTY_ASSIGNED_CONTEXT ( ( #34 ) ) GLOBAL_UNIT_ASSIGNED_CONTEXT ( ( #104, #243, #129 ) ) REPRESENTATION_CONTEXT ( 'NONE', 'WORKASPACE' ) );
#140 = ORIENTED_EDGE ( 'NONE', *, *, #172, .T. ) ;
#141 = DIRECTION ( 'NONE',  ( -0.7071067811865554600, 0.0000000000000000000, -0.7071067811865395800 ) ) ;
#142 = LINE ( 'NONE', #247, #88 ) ;
#143 = DIMENSIONAL_EXPONENTS ( 1.000000000000000000, 0.0000000000000000000, 0.0000000000000000000, 0.0000000000000000000, 0.0000000000000000000, 0.0000000000000000000, 0.0000000000000000000 ) ;
#144 = EDGE_CURVE ( 'NONE', #10, #192, #208, .T. ) ;
#145 = APPLICATION_PROTOCOL_DEFINITION ( 'draft international standard', 'automotive_design', 1998, #165 ) ;
#146 = ORIENTED_EDGE ( 'NONE', *, *, #23, .F. ) ;
#147 = PRODUCT_CONTEXT ( 'NONE', #165, 'mechanical' ) ;
#148 = DIRECTION ( 'NONE',  ( 1.000000000000000000, 0.0000000000000000000, 0.0000000000000000000 ) ) ;
#149 = LINE ( 'NONE', #229, #94 ) ;
#150 = CARTESIAN_POINT ( 'NONE',  ( 0.0000000000000000000, 0.0000000000000000000, 12.00000000000000200 ) ) ;
#151 = CLOSED_SHELL ( 'NONE', ( #127, #9, #179, #202, #84, #27, #49, #101 ) ) ;
#152 = PLANE ( 'NONE',  #2 ) ;
#153 = AXIS2_PLACEMENT_3D ( 'NONE', #110, #245, #132 ) ;
#154 = DIRECTION ( 'NONE',  ( 1.000000000000000000, 0.0000000000000000000, 0.0000000000000000000 ) ) ;
#155 = VERTEX_POINT ( 'NONE', #78 ) ;
#156 = FACE_OUTER_BOUND ( 'NONE', #66, .T. ) ;
#157 = EDGE_CURVE ( 'NONE', #155, #76, #13, .T. ) ;
#158 = ORIENTED_EDGE ( 'NONE', *, *, #236, .F. ) ;
#159 = DIRECTION ( 'NONE',  ( -0.0000000000000000000, -0.0000000000000000000, 1.000000000000000000 ) ) ;
#160 = DIRECTION ( 'NONE',  ( 1.000000000000000000, 0.0000000000000000000, 0.0000000000000000000 ) ) ;
#161 = CARTESIAN_POINT ( 'NONE',  ( 0.1250000000000000000, 1.530808498934191200E-017, -11.96999999999997800 ) ) ;
#162 = VECTOR ( 'NONE', #141, 39.37007874015748100 ) ;
#163 = AXIS2_PLACEMENT_3D ( 'NONE', #53, #185, #70 ) ;
#164 = EDGE_LOOP ( 'NONE', ( #201, #74, #89, #22 ) ) ;
#165 = APPLICATION_CONTEXT ( 'automotive_design' ) ;
#166 = APPLICATION_PROTOCOL_DEFINITION ( 'draft international standard', 'automotive_design', 1998, #30 ) ;
#167 = FACE_OUTER_BOUND ( 'NONE', #137, .T. ) ;
#168 = DIRECTION ( 'NONE',  ( 1.000000000000000000, 0.0000000000000000000, 0.0000000000000000000 ) ) ;
#169 = DIRECTION ( 'NONE',  ( 0.7071067811865554600, 0.0000000000000000000, 0.7071067811865396900 ) ) ;
#170 = LENGTH_MEASURE_WITH_UNIT ( LENGTH_MEASURE( 0.02539999999999999900 ), #225 );
#171 = VERTEX_POINT ( 'NONE', #31 ) ;
#172 = EDGE_CURVE ( 'NONE', #40, #178, #149, .T. ) ;
#173 = CIRCLE ( 'NONE', #18, 0.09499999999998025300 ) ;
#174 = AXIS2_PLACEMENT_3D ( 'NONE', #131, #14, #148 ) ;
#175 = ORIENTED_EDGE ( 'NONE', *, *, #11, .F. ) ;
#176 = CARTESIAN_POINT ( 'NONE',  ( 0.0000000000000000000, 0.0000000000000000000, -12.00000000000000200 ) ) ;
#177 = DIRECTION ( 'NONE',  ( 1.000000000000000000, 0.0000000000000000000, -0.0000000000000000000 ) ) ;
#178 = VERTEX_POINT ( 'NONE', #55 ) ;
#179 = ADVANCED_FACE ( 'NONE', ( #46 ), #191, .T. ) ;
#180 = CARTESIAN_POINT ( 'NONE',  ( 0.0000000000000000000, 0.0000000000000000000, 0.0000000000000000000 ) ) ;
#181 = EDGE_CURVE ( 'NONE', #93, #178, #246, .T. ) ;
#182 = SURFACE_SIDE_STYLE ('',( #218 ) ) ;
#183 = VECTOR ( 'NONE', #91, 39.37007874015748100 ) ;
#184 = LENGTH_MEASURE_WITH_UNIT ( LENGTH_MEASURE( 0.02539999999999999900 ), #211 );
#185 = DIRECTION ( 'NONE',  ( 0.0000000000000000000, 0.0000000000000000000, -1.000000000000000000 ) ) ;
#186 = SURFACE_SIDE_STYLE ('',( #43 ) ) ;
#187 = CYLINDRICAL_SURFACE ( 'NONE', #82, 0.1250000000000000000 ) ;
#188 = ORIENTED_EDGE ( 'NONE', *, *, #11, .T. ) ;
#189 = AXIS2_PLACEMENT_3D ( 'NONE', #6, #99, #125 ) ;
#190 = PRODUCT_RELATED_PRODUCT_CATEGORY ( 'part', '', ( #87 ) ) ;
#191 = CYLINDRICAL_SURFACE ( 'NONE', #113, 0.1250000000000000000 ) ;
#192 = VERTEX_POINT ( 'NONE', #114 ) ;
#193 = UNCERTAINTY_MEASURE_WITH_UNIT (LENGTH_MEASURE( 1.000000000000000100E-005 ), #86, 'distance_accuracy_value', 'NONE');
#194 = EDGE_CURVE ( 'NONE', #171, #93, #142, .T. ) ;
#195 = EDGE_LOOP ( 'NONE', ( #19, #214 ) ) ;
#196 = CARTESIAN_POINT ( 'NONE',  ( 0.0000000000000000000, 0.0000000000000000000, -12.00000000000000200 ) ) ;
#197 = DIRECTION ( 'NONE',  ( 1.000000000000000000, 0.0000000000000000000, 0.0000000000000000000 ) ) ;
#198 = DIRECTION ( 'NONE',  ( -1.000000000000000000, 0.0000000000000000000, 0.0000000000000000000 ) ) ;
#199 = VECTOR ( 'NONE', #242, 39.37007874015748100 ) ;
#200 = CONICAL_SURFACE ( 'NONE', #189, 0.09500000000000866100, 0.7853981633974594900 ) ;
#201 = ORIENTED_EDGE ( 'NONE', *, *, #144, .T. ) ;
#202 = ADVANCED_FACE ( 'NONE', ( #156 ), #187, .T. ) ;
#203 = AXIS2_PLACEMENT_3D ( 'NONE', #44, #45, #177 ) ;
#204 = DIMENSIONAL_EXPONENTS ( 1.000000000000000000, 0.0000000000000000000, 0.0000000000000000000, 0.0000000000000000000, 0.0000000000000000000, 0.0000000000000000000, 0.0000000000000000000 ) ;
#205 = DIRECTION ( 'NONE',  ( 0.0000000000000000000, 0.0000000000000000000, -1.000000000000000000 ) ) ;
#206 = ORIENTED_EDGE ( 'NONE', *, *, #138, .F. ) ;
#207 =( LENGTH_UNIT ( ) NAMED_UNIT ( * ) SI_UNIT ( $, .METRE. ) );
#208 = CIRCLE ( 'NONE', #163, 0.1250000000000000000 ) ;
#209 = PRODUCT_DEFINITION_FORMATION_WITH_SPECIFIED_SOURCE ( 'ANY', '', #87, .NOT_KNOWN. ) ;
#210 = PRODUCT_DEFINITION_CONTEXT ( 'detailed design', #30, 'design' ) ;
#211 =( LENGTH_UNIT ( ) NAMED_UNIT ( * ) SI_UNIT ( $, .METRE. ) );
#212 = CARTESIAN_POINT ( 'NONE',  ( 0.1250000000000000000, 1.530808498934191200E-017, 12.00000000000000200 ) ) ;
#213 = PRESENTATION_STYLE_ASSIGNMENT (( #68 ) ) ;
#214 = ORIENTED_EDGE ( 'NONE', *, *, #157, .T. ) ;
#215 = EDGE_CURVE ( 'NONE', #192, #93, #100, .T. ) ;
#216 = VECTOR ( 'NONE', #73, 39.37007874015748100 ) ;
#217 = AXIS2_PLACEMENT_3D ( 'NONE', #81, #26, #198 ) ;
#218 = SURFACE_STYLE_FILL_AREA ( #51 ) ;
#219 = ORIENTED_EDGE ( 'NONE', *, *, #52, .F. ) ;
#220 = DIRECTION ( 'NONE',  ( 0.0000000000000000000, 0.0000000000000000000, 1.000000000000000000 ) ) ;
#221 = CARTESIAN_POINT ( 'NONE',  ( -0.09500000000000866100, 0.0000000000000000000, 12.00000000000000200 ) ) ;
#222 = FACE_OUTER_BOUND ( 'NONE', #50, .T. ) ;
#223 = PRODUCT_DEFINITION ( 'UNKNOWN', '', #209, #210 ) ;
#224 = ORIENTED_EDGE ( 'NONE', *, *, #172, .F. ) ;
#225 =( LENGTH_UNIT ( ) NAMED_UNIT ( * ) SI_UNIT ( $, .METRE. ) );
#226 = EDGE_CURVE ( 'NONE', #10, #178, #39, .T. ) ;
#227 =( NAMED_UNIT ( * ) PLANE_ANGLE_UNIT ( ) SI_UNIT ( $, .RADIAN. ) );
#228 = FACE_OUTER_BOUND ( 'NONE', #112, .T. ) ;
#229 = CARTESIAN_POINT ( 'NONE',  ( -0.1250000000000000000, 1.530808498934191200E-017, -11.96999999999998100 ) ) ;
#230 = DIRECTION ( 'NONE',  ( -0.0000000000000000000, -0.0000000000000000000, -1.000000000000000000 ) ) ;
#231 =( NAMED_UNIT ( * ) PLANE_ANGLE_UNIT ( ) SI_UNIT ( $, .RADIAN. ) );
#232 = CARTESIAN_POINT ( 'NONE',  ( -0.1250000000000000000, 0.0000000000000000000, 12.00000000000000200 ) ) ;
#233 = EDGE_LOOP ( 'NONE', ( #249, #28, #83, #219 ) ) ;
#234 = AXIS2_PLACEMENT_3D ( 'NONE', #180, #130, #12 ) ;
#235 = ORIENTED_EDGE ( 'NONE', *, *, #52, .T. ) ;
#236 = EDGE_CURVE ( 'NONE', #155, #192, #135, .T. ) ;
#237 = DIRECTION ( 'NONE',  ( 0.0000000000000000000, 0.0000000000000000000, 1.000000000000000000 ) ) ;
#238 = ADVANCED_BREP_SHAPE_REPRESENTATION ( 'RPSS04-24', ( #8, #234 ), #139 ) ;
#239 = ORIENTED_EDGE ( 'NONE', *, *, #138, .T. ) ;
#240 = AXIS2_PLACEMENT_3D ( 'NONE', #80, #25, #160 ) ;
#241 = DIMENSIONAL_EXPONENTS ( 1.000000000000000000, 0.0000000000000000000, 0.0000000000000000000, 0.0000000000000000000, 0.0000000000000000000, 0.0000000000000000000, 0.0000000000000000000 ) ;
#242 = DIRECTION ( 'NONE',  ( 0.7071067811865554600, 8.659560562355029000E-017, -0.7071067811865395800 ) ) ;
#243 =( NAMED_UNIT ( * ) PLANE_ANGLE_UNIT ( ) SI_UNIT ( $, .RADIAN. ) );
#244 = PRESENTATION_STYLE_ASSIGNMENT (( #72 ) ) ;
#245 = DIRECTION ( 'NONE',  ( 0.0000000000000000000, 0.0000000000000000000, 1.000000000000000000 ) ) ;
#246 = CIRCLE ( 'NONE', #126, 0.1250000000000000000 ) ;
#247 = CARTESIAN_POINT ( 'NONE',  ( 0.1250000000000000000, 0.0000000000000000000, -11.96999999999998100 ) ) ;
#248 = EDGE_CURVE ( 'NONE', #192, #10, #38, .T. ) ;
#249 = ORIENTED_EDGE ( 'NONE', *, *, #157, .F. ) ;
ENDSEC;
END-ISO-10303-21;
