ISO-10303-21;
HEADER;
FILE_DESCRIPTION (( 'STEP AP214' ),
    '1' );
FILE_NAME ('RPSS04-3.step',
    '2017-08-09T17:43:17',
    ( '' ),
    ( '' ),
    'SwSTEP 2.0',
    'SolidWorks 2017',
    '' );
FILE_SCHEMA (( 'AUTOMOTIVE_DESIGN' ));
ENDSEC;

DATA;
#1 = CIRCLE ( 'NONE', #79, 0.09499999999999773900 ) ;
#2 = AXIS2_PLACEMENT_3D ( 'NONE', #249, #131, #22 ) ;
#3 = FILL_AREA_STYLE_COLOUR ( '', #227 ) ;
#4 = EDGE_LOOP ( 'NONE', ( #202, #87, #45, #140 ) ) ;
#5 = DIRECTION ( 'NONE',  ( 1.000000000000000000, 0.0000000000000000000, 0.0000000000000000000 ) ) ;
#6 =( GEOMETRIC_REPRESENTATION_CONTEXT ( 3 ) GLOBAL_UNCERTAINTY_ASSIGNED_CONTEXT ( ( #16 ) ) GLOBAL_UNIT_ASSIGNED_CONTEXT ( ( #81, #214, #98 ) ) REPRESENTATION_CONTEXT ( 'NONE', 'WORKASPACE' ) );
#7 = ORIENTED_EDGE ( 'NONE', *, *, #26, .F. ) ;
#8 = ORIENTED_EDGE ( 'NONE', *, *, #35, .T. ) ;
#9 = SHAPE_DEFINITION_REPRESENTATION ( #181, #217 ) ;
#10 = EDGE_CURVE ( 'NONE', #51, #248, #54, .T. ) ;
#11 =( NAMED_UNIT ( * ) SI_UNIT ( $, .STERADIAN. ) SOLID_ANGLE_UNIT ( ) );
#12 = CARTESIAN_POINT ( 'NONE',  ( 0.0000000000000000000, 0.0000000000000000000, 1.470000000000001500 ) ) ;
#13 = LINE ( 'NONE', #150, #213 ) ;
#14 = ORIENTED_EDGE ( 'NONE', *, *, #117, .F. ) ;
#15 = AXIS2_PLACEMENT_3D ( 'NONE', #225, #34, #164 ) ;
#16 = UNCERTAINTY_MEASURE_WITH_UNIT (LENGTH_MEASURE( 1.000000000000000100E-005 ), #81, 'distance_accuracy_value', 'NONE');
#17 = PLANE ( 'NONE',  #15 ) ;
#18 = VECTOR ( 'NONE', #210, 39.37007874015748100 ) ;
#19 = ORIENTED_EDGE ( 'NONE', *, *, #127, .F. ) ;
#20 = CIRCLE ( 'NONE', #82, 0.1250000000000000000 ) ;
#21 = MECHANICAL_DESIGN_GEOMETRIC_PRESENTATION_REPRESENTATION (  '', ( #44 ), #6 ) ;
#22 = DIRECTION ( 'NONE',  ( 1.000000000000000000, 0.0000000000000000000, 0.0000000000000000000 ) ) ;
#23 = DIRECTION ( 'NONE',  ( -0.7071067811865489100, 8.659560562354950100E-017, 0.7071067811865461300 ) ) ;
#24 = DIMENSIONAL_EXPONENTS ( 1.000000000000000000, 0.0000000000000000000, 0.0000000000000000000, 0.0000000000000000000, 0.0000000000000000000, 0.0000000000000000000, 0.0000000000000000000 ) ;
#25 = CARTESIAN_POINT ( 'NONE',  ( 0.1250000000000000000, 1.530808498934191200E-017, 1.470000000000001500 ) ) ;
#26 = EDGE_CURVE ( 'NONE', #120, #99, #194, .T. ) ;
#27 = FACE_OUTER_BOUND ( 'NONE', #94, .T. ) ;
#28 = APPLICATION_CONTEXT ( 'automotive_design' ) ;
#29 = AXIS2_PLACEMENT_3D ( 'NONE', #220, #203, #111 ) ;
#30 = CYLINDRICAL_SURFACE ( 'NONE', #29, 0.1250000000000000000 ) ;
#31 = CARTESIAN_POINT ( 'NONE',  ( 0.1250000000000000000, 1.530808498934191200E-017, -1.469999999999998000 ) ) ;
#32 = DIRECTION ( 'NONE',  ( 1.000000000000000000, 0.0000000000000000000, 0.0000000000000000000 ) ) ;
#33 = PRESENTATION_LAYER_ASSIGNMENT (  '', '', ( #44 ) ) ;
#34 = DIRECTION ( 'NONE',  ( 0.0000000000000000000, 0.0000000000000000000, 1.000000000000000000 ) ) ;
#35 = EDGE_CURVE ( 'NONE', #240, #233, #1, .T. ) ;
#36 = FACE_OUTER_BOUND ( 'NONE', #52, .T. ) ;
#37 = ORIENTED_EDGE ( 'NONE', *, *, #188, .T. ) ;
#38 = CARTESIAN_POINT ( 'NONE',  ( -0.09500000000000129200, 0.0000000000000000000, 1.500000000000000200 ) ) ;
#39 = ORIENTED_EDGE ( 'NONE', *, *, #218, .F. ) ;
#40 = SURFACE_STYLE_FILL_AREA ( #239 ) ;
#41 = AXIS2_PLACEMENT_3D ( 'NONE', #47, #104, #219 ) ;
#42 = ADVANCED_FACE ( 'NONE', ( #95 ), #186, .T. ) ;
#43 = EDGE_LOOP ( 'NONE', ( #19, #192, #247, #110 ) ) ;
#44 = STYLED_ITEM ( 'NONE', ( #234 ), #217 ) ;
#45 = ORIENTED_EDGE ( 'NONE', *, *, #151, .F. ) ;
#46 = LINE ( 'NONE', #170, #101 ) ;
#47 = CARTESIAN_POINT ( 'NONE',  ( 0.0000000000000000000, 0.0000000000000000000, 1.500000000000000200 ) ) ;
#48 = DIRECTION ( 'NONE',  ( -0.0000000000000000000, -0.0000000000000000000, 1.000000000000000000 ) ) ;
#49 = PRODUCT_DEFINITION_CONTEXT ( 'detailed design', #28, 'design' ) ;
#50 =( CONVERSION_BASED_UNIT ( 'INCH', #53 ) LENGTH_UNIT ( ) NAMED_UNIT ( #24 ) );
#51 = VERTEX_POINT ( 'NONE', #90 ) ;
#52 = EDGE_LOOP ( 'NONE', ( #8, #141 ) ) ;
#53 = LENGTH_MEASURE_WITH_UNIT ( LENGTH_MEASURE( 0.02539999999999999900 ), #223 );
#54 = CIRCLE ( 'NONE', #102, 0.1250000000000000000 ) ;
#55 = AXIS2_PLACEMENT_3D ( 'NONE', #205, #243, #91 ) ;
#56 = CARTESIAN_POINT ( 'NONE',  ( -0.1250000000000000000, 0.0000000000000000000, 1.470000000000001500 ) ) ;
#57 = SURFACE_STYLE_FILL_AREA ( #212 ) ;
#58 = ORIENTED_EDGE ( 'NONE', *, *, #137, .T. ) ;
#59 = ORIENTED_EDGE ( 'NONE', *, *, #232, .F. ) ;
#60 = CONICAL_SURFACE ( 'NONE', #109, 0.1250000000000000000, 0.7853981633974502800 ) ;
#61 = ORIENTED_EDGE ( 'NONE', *, *, #35, .F. ) ;
#62 = CARTESIAN_POINT ( 'NONE',  ( 0.0000000000000000000, 0.0000000000000000000, 1.500000000000000200 ) ) ;
#63 = ADVANCED_FACE ( 'NONE', ( #143 ), #30, .T. ) ;
#64 = DIRECTION ( 'NONE',  ( 0.0000000000000000000, 0.0000000000000000000, -1.000000000000000000 ) ) ;
#65 = CARTESIAN_POINT ( 'NONE',  ( 0.0000000000000000000, 0.0000000000000000000, -1.469999999999998000 ) ) ;
#66 = CIRCLE ( 'NONE', #179, 0.1250000000000000000 ) ;
#67 = FACE_OUTER_BOUND ( 'NONE', #43, .T. ) ;
#68 = DIRECTION ( 'NONE',  ( 1.000000000000000000, 0.0000000000000000000, 0.0000000000000000000 ) ) ;
#69 = CARTESIAN_POINT ( 'NONE',  ( 0.0000000000000000000, 0.0000000000000000000, 1.500000000000000200 ) ) ;
#70 = CARTESIAN_POINT ( 'NONE',  ( 0.0000000000000000000, 0.0000000000000000000, -1.500000000000000200 ) ) ;
#71 = CARTESIAN_POINT ( 'NONE',  ( -0.1250000000000000000, 0.0000000000000000000, 1.500000000000000200 ) ) ;
#72 = FACE_OUTER_BOUND ( 'NONE', #4, .T. ) ;
#73 =( NAMED_UNIT ( * ) SI_UNIT ( $, .STERADIAN. ) SOLID_ANGLE_UNIT ( ) );
#74 =( GEOMETRIC_REPRESENTATION_CONTEXT ( 3 ) GLOBAL_UNCERTAINTY_ASSIGNED_CONTEXT ( ( #169 ) ) GLOBAL_UNIT_ASSIGNED_CONTEXT ( ( #50, #178, #73 ) ) REPRESENTATION_CONTEXT ( 'NONE', 'WORKASPACE' ) );
#75 = CARTESIAN_POINT ( 'NONE',  ( 0.0000000000000000000, 0.0000000000000000000, -1.500000000000000200 ) ) ;
#76 = CIRCLE ( 'NONE', #2, 0.09499999999999773900 ) ;
#77 = DIRECTION ( 'NONE',  ( 0.7071067811865489100, 8.659560562354950100E-017, -0.7071067811865461300 ) ) ;
#78 = ADVANCED_FACE ( 'NONE', ( #242 ), #17, .T. ) ;
#79 = AXIS2_PLACEMENT_3D ( 'NONE', #75, #180, #68 ) ;
#80 = DIRECTION ( 'NONE',  ( 1.000000000000000000, 0.0000000000000000000, 0.0000000000000000000 ) ) ;
#81 =( CONVERSION_BASED_UNIT ( 'INCH', #173 ) LENGTH_UNIT ( ) NAMED_UNIT ( #231 ) );
#82 = AXIS2_PLACEMENT_3D ( 'NONE', #12, #139, #32 ) ;
#83 = DIRECTION ( 'NONE',  ( 1.000000000000000000, 0.0000000000000000000, 0.0000000000000000000 ) ) ;
#84 = DIRECTION ( 'NONE',  ( 1.000000000000000000, 0.0000000000000000000, -0.0000000000000000000 ) ) ;
#85 = APPLICATION_PROTOCOL_DEFINITION ( 'draft international standard', 'automotive_design', 1998, #107 ) ;
#86 = ORIENTED_EDGE ( 'NONE', *, *, #244, .F. ) ;
#87 = ORIENTED_EDGE ( 'NONE', *, *, #117, .T. ) ;
#88 = COLOUR_RGB ( '',0.7921568627450980000, 0.8196078431372548800, 0.9333333333333333500 ) ;
#89 = AXIS2_PLACEMENT_3D ( 'NONE', #69, #196, #83 ) ;
#90 = CARTESIAN_POINT ( 'NONE',  ( -0.1250000000000000000, 0.0000000000000000000, -1.469999999999998000 ) ) ;
#91 = DIRECTION ( 'NONE',  ( 1.000000000000000000, 0.0000000000000000000, 0.0000000000000000000 ) ) ;
#92 = ORIENTED_EDGE ( 'NONE', *, *, #26, .T. ) ;
#93 = AXIS2_PLACEMENT_3D ( 'NONE', #70, #197, #84 ) ;
#94 = EDGE_LOOP ( 'NONE', ( #14, #7, #58, #86 ) ) ;
#95 = FACE_OUTER_BOUND ( 'NONE', #156, .T. ) ;
#96 = CARTESIAN_POINT ( 'NONE',  ( 0.0000000000000000000, 0.0000000000000000000, 1.500000000000000200 ) ) ;
#97 = DIMENSIONAL_EXPONENTS ( 1.000000000000000000, 0.0000000000000000000, 0.0000000000000000000, 0.0000000000000000000, 0.0000000000000000000, 0.0000000000000000000, 0.0000000000000000000 ) ;
#98 =( NAMED_UNIT ( * ) SI_UNIT ( $, .STERADIAN. ) SOLID_ANGLE_UNIT ( ) );
#99 = VERTEX_POINT ( 'NONE', #144 ) ;
#100 = EDGE_LOOP ( 'NONE', ( #201, #199, #37, #59 ) ) ;
#101 = VECTOR ( 'NONE', #152, 39.37007874015748100 ) ;
#102 = AXIS2_PLACEMENT_3D ( 'NONE', #175, #236, #158 ) ;
#103 =( LENGTH_UNIT ( ) NAMED_UNIT ( * ) SI_UNIT ( $, .METRE. ) );
#104 = DIRECTION ( 'NONE',  ( -0.0000000000000000000, -0.0000000000000000000, -1.000000000000000000 ) ) ;
#105 = CARTESIAN_POINT ( 'NONE',  ( 0.0000000000000000000, 0.0000000000000000000, 0.0000000000000000000 ) ) ;
#106 = PRESENTATION_STYLE_ASSIGNMENT (( #226 ) ) ;
#107 = APPLICATION_CONTEXT ( 'automotive_design' ) ;
#108 = VERTEX_POINT ( 'NONE', #56 ) ;
#109 = AXIS2_PLACEMENT_3D ( 'NONE', #221, #48, #138 ) ;
#110 = ORIENTED_EDGE ( 'NONE', *, *, #204, .F. ) ;
#111 = DIRECTION ( 'NONE',  ( -1.000000000000000000, 0.0000000000000000000, 0.0000000000000000000 ) ) ;
#112 = SURFACE_SIDE_STYLE ('',( #57 ) ) ;
#113 = CONICAL_SURFACE ( 'NONE', #235, 0.09500000000000129200, 0.7853981633974502800 ) ;
#114 = LINE ( 'NONE', #71, #155 ) ;
#115 = CARTESIAN_POINT ( 'NONE',  ( 0.0000000000000000000, 0.0000000000000000000, 1.500000000000000200 ) ) ;
#116 = ADVANCED_FACE ( 'NONE', ( #124 ), #119, .T. ) ;
#117 = EDGE_CURVE ( 'NONE', #99, #185, #171, .T. ) ;
#118 = DIRECTION ( 'NONE',  ( 1.000000000000000000, 0.0000000000000000000, 0.0000000000000000000 ) ) ;
#119 = CONICAL_SURFACE ( 'NONE', #55, 0.1250000000000000000, 0.7853981633974502800 ) ;
#120 = VERTEX_POINT ( 'NONE', #129 ) ;
#121 = DIRECTION ( 'NONE',  ( 0.0000000000000000000, 0.0000000000000000000, 1.000000000000000000 ) ) ;
#122 =( NAMED_UNIT ( * ) PLANE_ANGLE_UNIT ( ) SI_UNIT ( $, .RADIAN. ) );
#123 = DIRECTION ( 'NONE',  ( -0.0000000000000000000, -0.0000000000000000000, -1.000000000000000000 ) ) ;
#124 = FACE_OUTER_BOUND ( 'NONE', #208, .T. ) ;
#125 = FILL_AREA_STYLE_COLOUR ( '', #88 ) ;
#126 = SURFACE_SIDE_STYLE ('',( #40 ) ) ;
#127 = EDGE_CURVE ( 'NONE', #233, #240, #76, .T. ) ;
#128 = UNCERTAINTY_MEASURE_WITH_UNIT (LENGTH_MEASURE( 1.000000000000000100E-005 ), #237, 'distance_accuracy_value', 'NONE');
#129 = CARTESIAN_POINT ( 'NONE',  ( -0.09500000000000129200, 0.0000000000000000000, 1.500000000000000200 ) ) ;
#130 =( GEOMETRIC_REPRESENTATION_CONTEXT ( 3 ) GLOBAL_UNCERTAINTY_ASSIGNED_CONTEXT ( ( #128 ) ) GLOBAL_UNIT_ASSIGNED_CONTEXT ( ( #237, #122, #11 ) ) REPRESENTATION_CONTEXT ( 'NONE', 'WORKASPACE' ) );
#131 = DIRECTION ( 'NONE',  ( -0.0000000000000000000, -0.0000000000000000000, -1.000000000000000000 ) ) ;
#132 = ADVANCED_FACE ( 'NONE', ( #27 ), #113, .T. ) ;
#133 = SURFACE_STYLE_USAGE ( .BOTH. , #126 ) ;
#134 = PRODUCT_CONTEXT ( 'NONE', #107, 'mechanical' ) ;
#135 = ORIENTED_EDGE ( 'NONE', *, *, #244, .T. ) ;
#136 = EDGE_LOOP ( 'NONE', ( #92, #183 ) ) ;
#137 = EDGE_CURVE ( 'NONE', #120, #108, #160, .T. ) ;
#138 = DIRECTION ( 'NONE',  ( 1.000000000000000000, 0.0000000000000000000, 0.0000000000000000000 ) ) ;
#139 = DIRECTION ( 'NONE',  ( 0.0000000000000000000, 0.0000000000000000000, -1.000000000000000000 ) ) ;
#140 = ORIENTED_EDGE ( 'NONE', *, *, #137, .F. ) ;
#141 = ORIENTED_EDGE ( 'NONE', *, *, #127, .T. ) ;
#142 = MECHANICAL_DESIGN_GEOMETRIC_PRESENTATION_REPRESENTATION (  '', ( #166 ), #130 ) ;
#143 = FACE_OUTER_BOUND ( 'NONE', #100, .T. ) ;
#144 = CARTESIAN_POINT ( 'NONE',  ( 0.09500000000000129200, 1.347111479062096500E-017, 1.500000000000000200 ) ) ;
#145 = ORIENTED_EDGE ( 'NONE', *, *, #10, .F. ) ;
#146 = ORIENTED_EDGE ( 'NONE', *, *, #204, .T. ) ;
#147 = DIRECTION ( 'NONE',  ( -1.000000000000000000, 0.0000000000000000000, 0.0000000000000000000 ) ) ;
#148 = ORIENTED_EDGE ( 'NONE', *, *, #232, .T. ) ;
#149 = ADVANCED_FACE ( 'NONE', ( #72 ), #153, .T. ) ;
#150 = CARTESIAN_POINT ( 'NONE',  ( -0.1250000000000000000, 1.530808498934191500E-017, -1.469999999999998000 ) ) ;
#151 = EDGE_CURVE ( 'NONE', #108, #185, #206, .T. ) ;
#152 = DIRECTION ( 'NONE',  ( 0.7071067811865489100, 0.0000000000000000000, 0.7071067811865461300 ) ) ;
#153 = CONICAL_SURFACE ( 'NONE', #224, 0.09500000000000129200, 0.7853981633974502800 ) ;
#154 = APPLICATION_PROTOCOL_DEFINITION ( 'draft international standard', 'automotive_design', 1998, #28 ) ;
#155 = VECTOR ( 'NONE', #198, 39.37007874015748100 ) ;
#156 = EDGE_LOOP ( 'NONE', ( #39, #135, #148, #241 ) ) ;
#157 = PRESENTATION_LAYER_ASSIGNMENT (  '', '', ( #166 ) ) ;
#158 = DIRECTION ( 'NONE',  ( 1.000000000000000000, 0.0000000000000000000, 0.0000000000000000000 ) ) ;
#159 = CARTESIAN_POINT ( 'NONE',  ( -0.09499999999999773900, 1.347111479062074800E-017, -1.500000000000000200 ) ) ;
#160 = LINE ( 'NONE', #38, #18 ) ;
#161 = CLOSED_SHELL ( 'NONE', ( #149, #229, #63, #42, #78, #211, #116, #132 ) ) ;
#162 = VECTOR ( 'NONE', #123, 39.37007874015748100 ) ;
#163 = EDGE_CURVE ( 'NONE', #99, #120, #165, .T. ) ;
#164 = DIRECTION ( 'NONE',  ( 1.000000000000000000, 0.0000000000000000000, -0.0000000000000000000 ) ) ;
#165 = CIRCLE ( 'NONE', #193, 0.09500000000000129200 ) ;
#166 = STYLED_ITEM ( 'NONE', ( #106 ), #195 ) ;
#167 = DIRECTION ( 'NONE',  ( -1.000000000000000000, 0.0000000000000000000, 0.0000000000000000000 ) ) ;
#168 = CARTESIAN_POINT ( 'NONE',  ( 0.0000000000000000000, 0.0000000000000000000, 1.470000000000001500 ) ) ;
#169 = UNCERTAINTY_MEASURE_WITH_UNIT (LENGTH_MEASURE( 1.000000000000000100E-005 ), #50, 'distance_accuracy_value', 'NONE');
#170 = CARTESIAN_POINT ( 'NONE',  ( 0.1250000000000000000, 0.0000000000000000000, -1.469999999999998000 ) ) ;
#171 = LINE ( 'NONE', #184, #222 ) ;
#172 = PRODUCT_RELATED_PRODUCT_CATEGORY ( 'part', '', ( #245 ) ) ;
#173 = LENGTH_MEASURE_WITH_UNIT ( LENGTH_MEASURE( 0.02539999999999999900 ), #190 );
#174 = EDGE_CURVE ( 'NONE', #233, #51, #13, .T. ) ;
#175 = CARTESIAN_POINT ( 'NONE',  ( 0.0000000000000000000, 0.0000000000000000000, -1.469999999999998000 ) ) ;
#176 = PLANE ( 'NONE',  #93 ) ;
#177 = CARTESIAN_POINT ( 'NONE',  ( 0.09499999999999773900, 0.0000000000000000000, -1.500000000000000200 ) ) ;
#178 =( NAMED_UNIT ( * ) PLANE_ANGLE_UNIT ( ) SI_UNIT ( $, .RADIAN. ) );
#179 = AXIS2_PLACEMENT_3D ( 'NONE', #65, #189, #80 ) ;
#180 = DIRECTION ( 'NONE',  ( -0.0000000000000000000, -0.0000000000000000000, -1.000000000000000000 ) ) ;
#181 = PRODUCT_DEFINITION_SHAPE ( 'NONE', 'NONE',  #200 ) ;
#182 = PRODUCT_DEFINITION_FORMATION_WITH_SPECIFIED_SOURCE ( 'ANY', '', #245, .NOT_KNOWN. ) ;
#183 = ORIENTED_EDGE ( 'NONE', *, *, #163, .T. ) ;
#184 = CARTESIAN_POINT ( 'NONE',  ( 0.09500000000000129200, 1.163414459190001300E-017, 1.500000000000000200 ) ) ;
#185 = VERTEX_POINT ( 'NONE', #25 ) ;
#186 = CYLINDRICAL_SURFACE ( 'NONE', #41, 0.1250000000000000000 ) ;
#187 = DIRECTION ( 'NONE',  ( 1.000000000000000000, 0.0000000000000000000, 0.0000000000000000000 ) ) ;
#188 = EDGE_CURVE ( 'NONE', #248, #51, #66, .T. ) ;
#189 = DIRECTION ( 'NONE',  ( -0.0000000000000000000, -0.0000000000000000000, 1.000000000000000000 ) ) ;
#190 =( LENGTH_UNIT ( ) NAMED_UNIT ( * ) SI_UNIT ( $, .METRE. ) );
#191 = ORIENTED_EDGE ( 'NONE', *, *, #174, .F. ) ;
#192 = ORIENTED_EDGE ( 'NONE', *, *, #174, .T. ) ;
#193 = AXIS2_PLACEMENT_3D ( 'NONE', #96, #230, #118 ) ;
#194 = CIRCLE ( 'NONE', #89, 0.09500000000000129200 ) ;
#195 = MANIFOLD_SOLID_BREP ( 'Chamfer1', #161 ) ;
#196 = DIRECTION ( 'NONE',  ( 0.0000000000000000000, 0.0000000000000000000, 1.000000000000000000 ) ) ;
#197 = DIRECTION ( 'NONE',  ( 0.0000000000000000000, 0.0000000000000000000, 1.000000000000000000 ) ) ;
#198 = DIRECTION ( 'NONE',  ( -0.0000000000000000000, -0.0000000000000000000, -1.000000000000000000 ) ) ;
#199 = ORIENTED_EDGE ( 'NONE', *, *, #218, .T. ) ;
#200 = PRODUCT_DEFINITION ( 'UNKNOWN', '', #182, #49 ) ;
#201 = ORIENTED_EDGE ( 'NONE', *, *, #151, .T. ) ;
#202 = ORIENTED_EDGE ( 'NONE', *, *, #163, .F. ) ;
#203 = DIRECTION ( 'NONE',  ( -0.0000000000000000000, -0.0000000000000000000, -1.000000000000000000 ) ) ;
#204 = EDGE_CURVE ( 'NONE', #240, #248, #46, .T. ) ;
#205 = CARTESIAN_POINT ( 'NONE',  ( 0.0000000000000000000, 0.0000000000000000000, -1.469999999999998000 ) ) ;
#206 = CIRCLE ( 'NONE', #209, 0.1250000000000000000 ) ;
#207 = DIRECTION ( 'NONE',  ( 0.0000000000000000000, 0.0000000000000000000, -1.000000000000000000 ) ) ;
#208 = EDGE_LOOP ( 'NONE', ( #191, #61, #146, #145 ) ) ;
#209 = AXIS2_PLACEMENT_3D ( 'NONE', #168, #64, #187 ) ;
#210 = DIRECTION ( 'NONE',  ( -0.7071067811865489100, 0.0000000000000000000, -0.7071067811865461300 ) ) ;
#211 = ADVANCED_FACE ( 'NONE', ( #36 ), #176, .F. ) ;
#212 = FILL_AREA_STYLE ('',( #3 ) ) ;
#213 = VECTOR ( 'NONE', #23, 39.37007874015748100 ) ;
#214 =( NAMED_UNIT ( * ) PLANE_ANGLE_UNIT ( ) SI_UNIT ( $, .RADIAN. ) );
#215 = LINE ( 'NONE', #238, #162 ) ;
#216 = AXIS2_PLACEMENT_3D ( 'NONE', #105, #121, #5 ) ;
#217 = ADVANCED_BREP_SHAPE_REPRESENTATION ( 'RPSS04-3', ( #195, #216 ), #74 ) ;
#218 = EDGE_CURVE ( 'NONE', #185, #248, #215, .T. ) ;
#219 = DIRECTION ( 'NONE',  ( -1.000000000000000000, 0.0000000000000000000, 0.0000000000000000000 ) ) ;
#220 = CARTESIAN_POINT ( 'NONE',  ( 0.0000000000000000000, 0.0000000000000000000, 1.500000000000000200 ) ) ;
#221 = CARTESIAN_POINT ( 'NONE',  ( 0.0000000000000000000, 0.0000000000000000000, -1.469999999999998000 ) ) ;
#222 = VECTOR ( 'NONE', #77, 39.37007874015748100 ) ;
#223 =( LENGTH_UNIT ( ) NAMED_UNIT ( * ) SI_UNIT ( $, .METRE. ) );
#224 = AXIS2_PLACEMENT_3D ( 'NONE', #62, #228, #167 ) ;
#225 = CARTESIAN_POINT ( 'NONE',  ( 0.0000000000000000000, 0.0000000000000000000, 1.500000000000000200 ) ) ;
#226 = SURFACE_STYLE_USAGE ( .BOTH. , #112 ) ;
#227 = COLOUR_RGB ( '',0.7921568627450980000, 0.8196078431372548800, 0.9333333333333333500 ) ;
#228 = DIRECTION ( 'NONE',  ( 0.0000000000000000000, 0.0000000000000000000, -1.000000000000000000 ) ) ;
#229 = ADVANCED_FACE ( 'NONE', ( #67 ), #60, .T. ) ;
#230 = DIRECTION ( 'NONE',  ( 0.0000000000000000000, 0.0000000000000000000, 1.000000000000000000 ) ) ;
#231 = DIMENSIONAL_EXPONENTS ( 1.000000000000000000, 0.0000000000000000000, 0.0000000000000000000, 0.0000000000000000000, 0.0000000000000000000, 0.0000000000000000000, 0.0000000000000000000 ) ;
#232 = EDGE_CURVE ( 'NONE', #108, #51, #114, .T. ) ;
#233 = VERTEX_POINT ( 'NONE', #159 ) ;
#234 = PRESENTATION_STYLE_ASSIGNMENT (( #133 ) ) ;
#235 = AXIS2_PLACEMENT_3D ( 'NONE', #115, #207, #147 ) ;
#236 = DIRECTION ( 'NONE',  ( -0.0000000000000000000, -0.0000000000000000000, 1.000000000000000000 ) ) ;
#237 =( CONVERSION_BASED_UNIT ( 'INCH', #246 ) LENGTH_UNIT ( ) NAMED_UNIT ( #97 ) );
#238 = CARTESIAN_POINT ( 'NONE',  ( 0.1250000000000000000, 1.530808498934191200E-017, 1.500000000000000200 ) ) ;
#239 = FILL_AREA_STYLE ('',( #125 ) ) ;
#240 = VERTEX_POINT ( 'NONE', #177 ) ;
#241 = ORIENTED_EDGE ( 'NONE', *, *, #10, .T. ) ;
#242 = FACE_OUTER_BOUND ( 'NONE', #136, .T. ) ;
#243 = DIRECTION ( 'NONE',  ( -0.0000000000000000000, -0.0000000000000000000, 1.000000000000000000 ) ) ;
#244 = EDGE_CURVE ( 'NONE', #185, #108, #20, .T. ) ;
#245 = PRODUCT ( 'RPSS04-3', 'RPSS04-3', '', ( #134 ) ) ;
#246 = LENGTH_MEASURE_WITH_UNIT ( LENGTH_MEASURE( 0.02539999999999999900 ), #103 );
#247 = ORIENTED_EDGE ( 'NONE', *, *, #188, .F. ) ;
#248 = VERTEX_POINT ( 'NONE', #31 ) ;
#249 = CARTESIAN_POINT ( 'NONE',  ( 0.0000000000000000000, 0.0000000000000000000, -1.500000000000000200 ) ) ;
ENDSEC;
END-ISO-10303-21;
