ISO-10303-21;
HEADER;
FILE_DESCRIPTION (( 'STEP AP214' ),
    '1' );
FILE_NAME ('RPSS04-36.step',
    '2017-08-09T17:44:20',
    ( '' ),
    ( '' ),
    'SwSTEP 2.0',
    'SolidWorks 2017',
    '' );
FILE_SCHEMA (( 'AUTOMOTIVE_DESIGN' ));
ENDSEC;

DATA;
#1 = CARTESIAN_POINT ( 'NONE',  ( 0.0000000000000000000, 0.0000000000000000000, 18.00000000000000000 ) ) ;
#2 = ORIENTED_EDGE ( 'NONE', *, *, #93, .F. ) ;
#3 = DIRECTION ( 'NONE',  ( -0.0000000000000000000, -0.0000000000000000000, 1.000000000000000000 ) ) ;
#4 = CIRCLE ( 'NONE', #183, 0.1250000000000000000 ) ;
#5 = PRESENTATION_LAYER_ASSIGNMENT (  '', '', ( #243 ) ) ;
#6 = DIRECTION ( 'NONE',  ( -0.7071067811865551200, 0.0000000000000000000, -0.7071067811865398000 ) ) ;
#7 = APPLICATION_CONTEXT ( 'automotive_design' ) ;
#8 = CARTESIAN_POINT ( 'NONE',  ( 0.0000000000000000000, 0.0000000000000000000, 18.00000000000000000 ) ) ;
#9 = VECTOR ( 'NONE', #153, 39.37007874015748100 ) ;
#10 = APPLICATION_PROTOCOL_DEFINITION ( 'draft international standard', 'automotive_design', 1998, #124 ) ;
#11 = ORIENTED_EDGE ( 'NONE', *, *, #57, .F. ) ;
#12 = DIRECTION ( 'NONE',  ( 0.0000000000000000000, 0.0000000000000000000, 1.000000000000000000 ) ) ;
#13 = PRODUCT_DEFINITION_CONTEXT ( 'detailed design', #124, 'design' ) ;
#14 = EDGE_CURVE ( 'NONE', #60, #84, #113, .T. ) ;
#15 = CIRCLE ( 'NONE', #173, 0.1250000000000000000 ) ;
#16 = CARTESIAN_POINT ( 'NONE',  ( 0.0000000000000000000, 0.0000000000000000000, 17.96999999999999500 ) ) ;
#17 = LINE ( 'NONE', #186, #9 ) ;
#18 = PRODUCT_DEFINITION ( 'UNKNOWN', '', #35, #13 ) ;
#19 = VERTEX_POINT ( 'NONE', #87 ) ;
#20 = ADVANCED_FACE ( 'NONE', ( #161 ), #61, .T. ) ;
#21 = ORIENTED_EDGE ( 'NONE', *, *, #66, .F. ) ;
#22 = MECHANICAL_DESIGN_GEOMETRIC_PRESENTATION_REPRESENTATION (  '', ( #243 ), #39 ) ;
#23 = FACE_OUTER_BOUND ( 'NONE', #37, .T. ) ;
#24 = ORIENTED_EDGE ( 'NONE', *, *, #246, .T. ) ;
#25 = DIRECTION ( 'NONE',  ( 0.0000000000000000000, 0.0000000000000000000, 1.000000000000000000 ) ) ;
#26 = DIRECTION ( 'NONE',  ( -0.0000000000000000000, -0.0000000000000000000, -1.000000000000000000 ) ) ;
#27 = DIRECTION ( 'NONE',  ( -0.7071067811865294800, 8.659560562354713500E-017, 0.7071067811865656700 ) ) ;
#28 = ORIENTED_EDGE ( 'NONE', *, *, #236, .F. ) ;
#29 = EDGE_CURVE ( 'NONE', #19, #130, #154, .T. ) ;
#30 = DIRECTION ( 'NONE',  ( -1.000000000000000000, 0.0000000000000000000, 0.0000000000000000000 ) ) ;
#31 = LINE ( 'NONE', #82, #227 ) ;
#32 = FILL_AREA_STYLE ('',( #50 ) ) ;
#33 = SURFACE_SIDE_STYLE ('',( #40 ) ) ;
#34 = DIRECTION ( 'NONE',  ( 1.000000000000000000, 0.0000000000000000000, 0.0000000000000000000 ) ) ;
#35 = PRODUCT_DEFINITION_FORMATION_WITH_SPECIFIED_SOURCE ( 'ANY', '', #198, .NOT_KNOWN. ) ;
#36 = DIRECTION ( 'NONE',  ( 1.000000000000000000, 0.0000000000000000000, -0.0000000000000000000 ) ) ;
#37 = EDGE_LOOP ( 'NONE', ( #210, #197 ) ) ;
#38 = DIRECTION ( 'NONE',  ( 1.000000000000000000, 0.0000000000000000000, 0.0000000000000000000 ) ) ;
#39 =( GEOMETRIC_REPRESENTATION_CONTEXT ( 3 ) GLOBAL_UNCERTAINTY_ASSIGNED_CONTEXT ( ( #89 ) ) GLOBAL_UNIT_ASSIGNED_CONTEXT ( ( #69, #192, #88 ) ) REPRESENTATION_CONTEXT ( 'NONE', 'WORKASPACE' ) );
#40 = SURFACE_STYLE_FILL_AREA ( #138 ) ;
#41 = VERTEX_POINT ( 'NONE', #221 ) ;
#42 = ADVANCED_FACE ( 'NONE', ( #123 ), #125, .F. ) ;
#43 = EDGE_CURVE ( 'NONE', #19, #140, #106, .T. ) ;
#44 = LENGTH_MEASURE_WITH_UNIT ( LENGTH_MEASURE( 0.02539999999999999900 ), #175 );
#45 = PRODUCT_RELATED_PRODUCT_CATEGORY ( 'part', '', ( #198 ) ) ;
#46 = DIRECTION ( 'NONE',  ( -0.0000000000000000000, -0.0000000000000000000, -1.000000000000000000 ) ) ;
#47 = CLOSED_SHELL ( 'NONE', ( #96, #20, #182, #205, #165, #42, #245, #112 ) ) ;
#48 = CARTESIAN_POINT ( 'NONE',  ( 0.0000000000000000000, 0.0000000000000000000, -17.96999999999999900 ) ) ;
#49 = CONICAL_SURFACE ( 'NONE', #230, 0.09499999999999557400, 0.7853981633974592700 ) ;
#50 = FILL_AREA_STYLE_COLOUR ( '', #189 ) ;
#51 = AXIS2_PLACEMENT_3D ( 'NONE', #117, #248, #132 ) ;
#52 = DIRECTION ( 'NONE',  ( 0.7071067811865551200, 8.659560562355026500E-017, -0.7071067811865398000 ) ) ;
#53 = SURFACE_STYLE_USAGE ( .BOTH. , #156 ) ;
#54 =( LENGTH_UNIT ( ) NAMED_UNIT ( * ) SI_UNIT ( $, .METRE. ) );
#55 = LENGTH_MEASURE_WITH_UNIT ( LENGTH_MEASURE( 0.02539999999999999900 ), #68 );
#56 = ORIENTED_EDGE ( 'NONE', *, *, #93, .T. ) ;
#57 = EDGE_CURVE ( 'NONE', #140, #19, #15, .T. ) ;
#58 = LINE ( 'NONE', #120, #142 ) ;
#59 = VECTOR ( 'NONE', #52, 39.37007874015748900 ) ;
#60 = VERTEX_POINT ( 'NONE', #74 ) ;
#61 = CONICAL_SURFACE ( 'NONE', #127, 0.1250000000000000000, 0.7853981633974227400 ) ;
#62 = CARTESIAN_POINT ( 'NONE',  ( 0.09499999999999994600, 0.0000000000000000000, -18.00000000000000000 ) ) ;
#63 = ORIENTED_EDGE ( 'NONE', *, *, #236, .T. ) ;
#64 = DIRECTION ( 'NONE',  ( 1.000000000000000000, 0.0000000000000000000, 0.0000000000000000000 ) ) ;
#65 = CIRCLE ( 'NONE', #202, 0.09499999999999557400 ) ;
#66 = EDGE_CURVE ( 'NONE', #130, #244, #4, .T. ) ;
#67 = DIRECTION ( 'NONE',  ( -0.0000000000000000000, -0.0000000000000000000, -1.000000000000000000 ) ) ;
#68 =( LENGTH_UNIT ( ) NAMED_UNIT ( * ) SI_UNIT ( $, .METRE. ) );
#69 =( CONVERSION_BASED_UNIT ( 'INCH', #44 ) LENGTH_UNIT ( ) NAMED_UNIT ( #229 ) );
#70 = FACE_OUTER_BOUND ( 'NONE', #78, .T. ) ;
#71 =( NAMED_UNIT ( * ) PLANE_ANGLE_UNIT ( ) SI_UNIT ( $, .RADIAN. ) );
#72 = CARTESIAN_POINT ( 'NONE',  ( -0.1250000000000000000, 0.0000000000000000000, 18.00000000000000000 ) ) ;
#73 = EDGE_LOOP ( 'NONE', ( #172, #63, #126, #110 ) ) ;
#74 = CARTESIAN_POINT ( 'NONE',  ( 0.09499999999999557400, 1.347111479062061500E-017, 18.00000000000000000 ) ) ;
#75 = DIRECTION ( 'NONE',  ( 0.0000000000000000000, 0.0000000000000000000, -1.000000000000000000 ) ) ;
#76 = AXIS2_PLACEMENT_3D ( 'NONE', #133, #26, #152 ) ;
#77 = CIRCLE ( 'NONE', #76, 0.09499999999999994600 ) ;
#78 = EDGE_LOOP ( 'NONE', ( #28, #204, #95, #228 ) ) ;
#79 = EDGE_CURVE ( 'NONE', #84, #60, #65, .T. ) ;
#80 = FACE_OUTER_BOUND ( 'NONE', #185, .T. ) ;
#81 = DIRECTION ( 'NONE',  ( 1.000000000000000000, 0.0000000000000000000, -0.0000000000000000000 ) ) ;
#82 = CARTESIAN_POINT ( 'NONE',  ( 0.1250000000000000000, 0.0000000000000000000, -17.96999999999999900 ) ) ;
#83 = CARTESIAN_POINT ( 'NONE',  ( 0.0000000000000000000, 0.0000000000000000000, -17.96999999999999900 ) ) ;
#84 = VERTEX_POINT ( 'NONE', #107 ) ;
#85 = AXIS2_PLACEMENT_3D ( 'NONE', #137, #25, #81 ) ;
#86 =( NAMED_UNIT ( * ) PLANE_ANGLE_UNIT ( ) SI_UNIT ( $, .RADIAN. ) );
#87 = CARTESIAN_POINT ( 'NONE',  ( -0.1250000000000000000, 0.0000000000000000000, 17.96999999999999500 ) ) ;
#88 =( NAMED_UNIT ( * ) SI_UNIT ( $, .STERADIAN. ) SOLID_ANGLE_UNIT ( ) );
#89 = UNCERTAINTY_MEASURE_WITH_UNIT (LENGTH_MEASURE( 1.000000000000000100E-005 ), #69, 'distance_accuracy_value', 'NONE');
#90 = COLOUR_RGB ( '',0.7921568627450980000, 0.8196078431372548800, 0.9333333333333333500 ) ;
#91 = ORIENTED_EDGE ( 'NONE', *, *, #179, .F. ) ;
#92 = DIRECTION ( 'NONE',  ( 0.0000000000000000000, 0.0000000000000000000, -1.000000000000000000 ) ) ;
#93 = EDGE_CURVE ( 'NONE', #164, #41, #147, .T. ) ;
#94 = DIRECTION ( 'NONE',  ( -0.0000000000000000000, -0.0000000000000000000, 1.000000000000000000 ) ) ;
#95 = ORIENTED_EDGE ( 'NONE', *, *, #29, .T. ) ;
#96 = ADVANCED_FACE ( 'NONE', ( #200 ), #49, .T. ) ;
#97 = SURFACE_STYLE_FILL_AREA ( #32 ) ;
#98 = AXIS2_PLACEMENT_3D ( 'NONE', #48, #170, #64 ) ;
#99 = EDGE_LOOP ( 'NONE', ( #91, #118, #160, #241 ) ) ;
#100 = CARTESIAN_POINT ( 'NONE',  ( 0.0000000000000000000, 0.0000000000000000000, 18.00000000000000000 ) ) ;
#101 = CARTESIAN_POINT ( 'NONE',  ( 0.1250000000000000000, 1.530808498934191500E-017, -17.96999999999999900 ) ) ;
#102 = EDGE_CURVE ( 'NONE', #84, #19, #58, .T. ) ;
#103 = DIRECTION ( 'NONE',  ( -0.0000000000000000000, -0.0000000000000000000, 1.000000000000000000 ) ) ;
#104 = DIRECTION ( 'NONE',  ( 1.000000000000000000, 0.0000000000000000000, 0.0000000000000000000 ) ) ;
#105 = ORIENTED_EDGE ( 'NONE', *, *, #102, .F. ) ;
#106 = CIRCLE ( 'NONE', #148, 0.1250000000000000000 ) ;
#107 = CARTESIAN_POINT ( 'NONE',  ( -0.09499999999999557400, 0.0000000000000000000, 18.00000000000000000 ) ) ;
#108 = AXIS2_PLACEMENT_3D ( 'NONE', #83, #3, #213 ) ;
#109 = VECTOR ( 'NONE', #27, 39.37007874015748100 ) ;
#110 = ORIENTED_EDGE ( 'NONE', *, *, #29, .F. ) ;
#111 = MANIFOLD_SOLID_BREP ( 'Chamfer1', #47 ) ;
#112 = ADVANCED_FACE ( 'NONE', ( #80 ), #218, .T. ) ;
#113 = CIRCLE ( 'NONE', #115, 0.09499999999999557400 ) ;
#114 = DIMENSIONAL_EXPONENTS ( 1.000000000000000000, 0.0000000000000000000, 0.0000000000000000000, 0.0000000000000000000, 0.0000000000000000000, 0.0000000000000000000, 0.0000000000000000000 ) ;
#115 = AXIS2_PLACEMENT_3D ( 'NONE', #8, #139, #34 ) ;
#116 = CYLINDRICAL_SURFACE ( 'NONE', #121, 0.1250000000000000000 ) ;
#117 = CARTESIAN_POINT ( 'NONE',  ( 0.0000000000000000000, 0.0000000000000000000, 18.00000000000000000 ) ) ;
#118 = ORIENTED_EDGE ( 'NONE', *, *, #224, .T. ) ;
#119 = CARTESIAN_POINT ( 'NONE',  ( 0.0000000000000000000, 0.0000000000000000000, 0.0000000000000000000 ) ) ;
#120 = CARTESIAN_POINT ( 'NONE',  ( -0.09499999999999557400, 0.0000000000000000000, 18.00000000000000000 ) ) ;
#121 = AXIS2_PLACEMENT_3D ( 'NONE', #1, #211, #231 ) ;
#122 = LINE ( 'NONE', #232, #109 ) ;
#123 = FACE_OUTER_BOUND ( 'NONE', #163, .T. ) ;
#124 = APPLICATION_CONTEXT ( 'automotive_design' ) ;
#125 = PLANE ( 'NONE',  #162 ) ;
#126 = ORIENTED_EDGE ( 'NONE', *, *, #206, .T. ) ;
#127 = AXIS2_PLACEMENT_3D ( 'NONE', #239, #103, #158 ) ;
#128 = CARTESIAN_POINT ( 'NONE',  ( 0.0000000000000000000, 0.0000000000000000000, 18.00000000000000000 ) ) ;
#129 = UNCERTAINTY_MEASURE_WITH_UNIT (LENGTH_MEASURE( 1.000000000000000100E-005 ), #191, 'distance_accuracy_value', 'NONE');
#130 = VERTEX_POINT ( 'NONE', #168 ) ;
#131 = AXIS2_PLACEMENT_3D ( 'NONE', #100, #46, #184 ) ;
#132 = DIRECTION ( 'NONE',  ( -1.000000000000000000, 0.0000000000000000000, 0.0000000000000000000 ) ) ;
#133 = CARTESIAN_POINT ( 'NONE',  ( 0.0000000000000000000, 0.0000000000000000000, -18.00000000000000000 ) ) ;
#134 = ORIENTED_EDGE ( 'NONE', *, *, #79, .F. ) ;
#135 = ORIENTED_EDGE ( 'NONE', *, *, #179, .T. ) ;
#136 = DIRECTION ( 'NONE',  ( 1.000000000000000000, 0.0000000000000000000, 0.0000000000000000000 ) ) ;
#137 = CARTESIAN_POINT ( 'NONE',  ( 0.0000000000000000000, 0.0000000000000000000, 18.00000000000000000 ) ) ;
#138 = FILL_AREA_STYLE ('',( #235 ) ) ;
#139 = DIRECTION ( 'NONE',  ( 0.0000000000000000000, 0.0000000000000000000, 1.000000000000000000 ) ) ;
#140 = VERTEX_POINT ( 'NONE', #149 ) ;
#141 = DIRECTION ( 'NONE',  ( 0.0000000000000000000, 0.0000000000000000000, -1.000000000000000000 ) ) ;
#142 = VECTOR ( 'NONE', #6, 39.37007874015748900 ) ;
#143 =( GEOMETRIC_REPRESENTATION_CONTEXT ( 3 ) GLOBAL_UNCERTAINTY_ASSIGNED_CONTEXT ( ( #129 ) ) GLOBAL_UNIT_ASSIGNED_CONTEXT ( ( #191, #86, #217 ) ) REPRESENTATION_CONTEXT ( 'NONE', 'WORKASPACE' ) );
#144 = EDGE_LOOP ( 'NONE', ( #178, #24, #215, #105 ) ) ;
#145 = PRODUCT_DEFINITION_SHAPE ( 'NONE', 'NONE',  #18 ) ;
#146 = DIMENSIONAL_EXPONENTS ( 1.000000000000000000, 0.0000000000000000000, 0.0000000000000000000, 0.0000000000000000000, 0.0000000000000000000, 0.0000000000000000000, 0.0000000000000000000 ) ;
#147 = CIRCLE ( 'NONE', #216, 0.09499999999999994600 ) ;
#148 = AXIS2_PLACEMENT_3D ( 'NONE', #199, #92, #225 ) ;
#149 = CARTESIAN_POINT ( 'NONE',  ( 0.1250000000000000000, 1.530808498934191500E-017, 17.96999999999999500 ) ) ;
#150 = FACE_OUTER_BOUND ( 'NONE', #181, .T. ) ;
#151 = ORIENTED_EDGE ( 'NONE', *, *, #246, .F. ) ;
#152 = DIRECTION ( 'NONE',  ( 1.000000000000000000, 0.0000000000000000000, 0.0000000000000000000 ) ) ;
#153 = DIRECTION ( 'NONE',  ( -0.0000000000000000000, -0.0000000000000000000, -1.000000000000000000 ) ) ;
#154 = LINE ( 'NONE', #72, #207 ) ;
#155 = CARTESIAN_POINT ( 'NONE',  ( 0.09499999999999557400, 1.163414459189931400E-017, 18.00000000000000000 ) ) ;
#156 = SURFACE_SIDE_STYLE ('',( #97 ) ) ;
#157 = SURFACE_STYLE_USAGE ( .BOTH. , #33 ) ;
#158 = DIRECTION ( 'NONE',  ( 1.000000000000000000, 0.0000000000000000000, 0.0000000000000000000 ) ) ;
#159 = CYLINDRICAL_SURFACE ( 'NONE', #131, 0.1250000000000000000 ) ;
#160 = ORIENTED_EDGE ( 'NONE', *, *, #206, .F. ) ;
#161 = FACE_OUTER_BOUND ( 'NONE', #99, .T. ) ;
#162 = AXIS2_PLACEMENT_3D ( 'NONE', #195, #12, #36 ) ;
#163 = EDGE_LOOP ( 'NONE', ( #56, #135 ) ) ;
#164 = VERTEX_POINT ( 'NONE', #62 ) ;
#165 = ADVANCED_FACE ( 'NONE', ( #23 ), #237, .T. ) ;
#166 = FACE_OUTER_BOUND ( 'NONE', #73, .T. ) ;
#167 = STYLED_ITEM ( 'NONE', ( #233 ), #169 ) ;
#168 = CARTESIAN_POINT ( 'NONE',  ( -0.1250000000000000000, 0.0000000000000000000, -17.96999999999999900 ) ) ;
#169 = ADVANCED_BREP_SHAPE_REPRESENTATION ( 'RPSS04-36', ( #111, #249 ), #143 ) ;
#170 = DIRECTION ( 'NONE',  ( -0.0000000000000000000, -0.0000000000000000000, 1.000000000000000000 ) ) ;
#171 = LENGTH_MEASURE_WITH_UNIT ( LENGTH_MEASURE( 0.02539999999999999900 ), #54 );
#172 = ORIENTED_EDGE ( 'NONE', *, *, #43, .T. ) ;
#173 = AXIS2_PLACEMENT_3D ( 'NONE', #16, #141, #38 ) ;
#174 = CARTESIAN_POINT ( 'NONE',  ( 0.0000000000000000000, 0.0000000000000000000, -18.00000000000000000 ) ) ;
#175 =( LENGTH_UNIT ( ) NAMED_UNIT ( * ) SI_UNIT ( $, .METRE. ) );
#176 =( CONVERSION_BASED_UNIT ( 'INCH', #171 ) LENGTH_UNIT ( ) NAMED_UNIT ( #114 ) );
#177 = DIRECTION ( 'NONE',  ( -0.0000000000000000000, -0.0000000000000000000, -1.000000000000000000 ) ) ;
#178 = ORIENTED_EDGE ( 'NONE', *, *, #14, .F. ) ;
#179 = EDGE_CURVE ( 'NONE', #41, #164, #77, .T. ) ;
#180 = PRESENTATION_LAYER_ASSIGNMENT (  '', '', ( #167 ) ) ;
#181 = EDGE_LOOP ( 'NONE', ( #219, #2, #234, #21 ) ) ;
#182 = ADVANCED_FACE ( 'NONE', ( #166 ), #116, .T. ) ;
#183 = AXIS2_PLACEMENT_3D ( 'NONE', #201, #94, #226 ) ;
#184 = DIRECTION ( 'NONE',  ( -1.000000000000000000, 0.0000000000000000000, 0.0000000000000000000 ) ) ;
#185 = EDGE_LOOP ( 'NONE', ( #151, #134, #223, #11 ) ) ;
#186 = CARTESIAN_POINT ( 'NONE',  ( 0.1250000000000000000, 1.530808498934191500E-017, 18.00000000000000000 ) ) ;
#187 = EDGE_CURVE ( 'NONE', #164, #244, #31, .T. ) ;
#188 = DIRECTION ( 'NONE',  ( 0.0000000000000000000, 0.0000000000000000000, 1.000000000000000000 ) ) ;
#189 = COLOUR_RGB ( '',0.7921568627450980000, 0.8196078431372548800, 0.9333333333333333500 ) ;
#190 = DIRECTION ( 'NONE',  ( 1.000000000000000000, 0.0000000000000000000, 0.0000000000000000000 ) ) ;
#191 =( CONVERSION_BASED_UNIT ( 'INCH', #55 ) LENGTH_UNIT ( ) NAMED_UNIT ( #146 ) );
#192 =( NAMED_UNIT ( * ) PLANE_ANGLE_UNIT ( ) SI_UNIT ( $, .RADIAN. ) );
#193 = MECHANICAL_DESIGN_GEOMETRIC_PRESENTATION_REPRESENTATION (  '', ( #167 ), #208 ) ;
#194 =( NAMED_UNIT ( * ) SI_UNIT ( $, .STERADIAN. ) SOLID_ANGLE_UNIT ( ) );
#195 = CARTESIAN_POINT ( 'NONE',  ( 0.0000000000000000000, 0.0000000000000000000, -18.00000000000000000 ) ) ;
#196 = CONICAL_SURFACE ( 'NONE', #108, 0.1250000000000000000, 0.7853981633974227400 ) ;
#197 = ORIENTED_EDGE ( 'NONE', *, *, #14, .T. ) ;
#198 = PRODUCT ( 'RPSS04-36', 'RPSS04-36', '', ( #240 ) ) ;
#199 = CARTESIAN_POINT ( 'NONE',  ( 0.0000000000000000000, 0.0000000000000000000, 17.96999999999999500 ) ) ;
#200 = FACE_OUTER_BOUND ( 'NONE', #144, .T. ) ;
#201 = CARTESIAN_POINT ( 'NONE',  ( 0.0000000000000000000, 0.0000000000000000000, -17.96999999999999900 ) ) ;
#202 = AXIS2_PLACEMENT_3D ( 'NONE', #128, #188, #136 ) ;
#203 = LINE ( 'NONE', #155, #59 ) ;
#204 = ORIENTED_EDGE ( 'NONE', *, *, #57, .T. ) ;
#205 = ADVANCED_FACE ( 'NONE', ( #70 ), #159, .T. ) ;
#206 = EDGE_CURVE ( 'NONE', #244, #130, #209, .T. ) ;
#207 = VECTOR ( 'NONE', #177, 39.37007874015748100 ) ;
#208 =( GEOMETRIC_REPRESENTATION_CONTEXT ( 3 ) GLOBAL_UNCERTAINTY_ASSIGNED_CONTEXT ( ( #222 ) ) GLOBAL_UNIT_ASSIGNED_CONTEXT ( ( #176, #71, #194 ) ) REPRESENTATION_CONTEXT ( 'NONE', 'WORKASPACE' ) );
#209 = CIRCLE ( 'NONE', #98, 0.1250000000000000000 ) ;
#210 = ORIENTED_EDGE ( 'NONE', *, *, #79, .T. ) ;
#211 = DIRECTION ( 'NONE',  ( -0.0000000000000000000, -0.0000000000000000000, -1.000000000000000000 ) ) ;
#212 = DIRECTION ( 'NONE',  ( 0.7071067811865294800, 0.0000000000000000000, 0.7071067811865656700 ) ) ;
#213 = DIRECTION ( 'NONE',  ( 1.000000000000000000, 0.0000000000000000000, 0.0000000000000000000 ) ) ;
#214 = SHAPE_DEFINITION_REPRESENTATION ( #145, #169 ) ;
#215 = ORIENTED_EDGE ( 'NONE', *, *, #43, .F. ) ;
#216 = AXIS2_PLACEMENT_3D ( 'NONE', #174, #67, #190 ) ;
#217 =( NAMED_UNIT ( * ) SI_UNIT ( $, .STERADIAN. ) SOLID_ANGLE_UNIT ( ) );
#218 = CONICAL_SURFACE ( 'NONE', #51, 0.09499999999999557400, 0.7853981633974592700 ) ;
#219 = ORIENTED_EDGE ( 'NONE', *, *, #224, .F. ) ;
#220 = DIRECTION ( 'NONE',  ( 0.0000000000000000000, 0.0000000000000000000, 1.000000000000000000 ) ) ;
#221 = CARTESIAN_POINT ( 'NONE',  ( -0.09499999999999994600, 1.347111479062088200E-017, -18.00000000000000000 ) ) ;
#222 = UNCERTAINTY_MEASURE_WITH_UNIT (LENGTH_MEASURE( 1.000000000000000100E-005 ), #176, 'distance_accuracy_value', 'NONE');
#223 = ORIENTED_EDGE ( 'NONE', *, *, #102, .T. ) ;
#224 = EDGE_CURVE ( 'NONE', #41, #130, #122, .T. ) ;
#225 = DIRECTION ( 'NONE',  ( 1.000000000000000000, 0.0000000000000000000, 0.0000000000000000000 ) ) ;
#226 = DIRECTION ( 'NONE',  ( 1.000000000000000000, 0.0000000000000000000, 0.0000000000000000000 ) ) ;
#227 = VECTOR ( 'NONE', #212, 39.37007874015748100 ) ;
#228 = ORIENTED_EDGE ( 'NONE', *, *, #66, .T. ) ;
#229 = DIMENSIONAL_EXPONENTS ( 1.000000000000000000, 0.0000000000000000000, 0.0000000000000000000, 0.0000000000000000000, 0.0000000000000000000, 0.0000000000000000000, 0.0000000000000000000 ) ;
#230 = AXIS2_PLACEMENT_3D ( 'NONE', #242, #75, #30 ) ;
#231 = DIRECTION ( 'NONE',  ( -1.000000000000000000, 0.0000000000000000000, 0.0000000000000000000 ) ) ;
#232 = CARTESIAN_POINT ( 'NONE',  ( -0.1250000000000000000, 1.530808498934191500E-017, -17.96999999999999900 ) ) ;
#233 = PRESENTATION_STYLE_ASSIGNMENT (( #157 ) ) ;
#234 = ORIENTED_EDGE ( 'NONE', *, *, #187, .T. ) ;
#235 = FILL_AREA_STYLE_COLOUR ( '', #90 ) ;
#236 = EDGE_CURVE ( 'NONE', #140, #244, #17, .T. ) ;
#237 = PLANE ( 'NONE',  #85 ) ;
#238 = APPLICATION_PROTOCOL_DEFINITION ( 'draft international standard', 'automotive_design', 1998, #7 ) ;
#239 = CARTESIAN_POINT ( 'NONE',  ( 0.0000000000000000000, 0.0000000000000000000, -17.96999999999999900 ) ) ;
#240 = PRODUCT_CONTEXT ( 'NONE', #7, 'mechanical' ) ;
#241 = ORIENTED_EDGE ( 'NONE', *, *, #187, .F. ) ;
#242 = CARTESIAN_POINT ( 'NONE',  ( 0.0000000000000000000, 0.0000000000000000000, 18.00000000000000000 ) ) ;
#243 = STYLED_ITEM ( 'NONE', ( #247 ), #111 ) ;
#244 = VERTEX_POINT ( 'NONE', #101 ) ;
#245 = ADVANCED_FACE ( 'NONE', ( #150 ), #196, .T. ) ;
#246 = EDGE_CURVE ( 'NONE', #60, #140, #203, .T. ) ;
#247 = PRESENTATION_STYLE_ASSIGNMENT (( #53 ) ) ;
#248 = DIRECTION ( 'NONE',  ( 0.0000000000000000000, 0.0000000000000000000, -1.000000000000000000 ) ) ;
#249 = AXIS2_PLACEMENT_3D ( 'NONE', #119, #220, #104 ) ;
ENDSEC;
END-ISO-10303-21;
