ISO-10303-21;
HEADER;
FILE_DESCRIPTION (( 'STEP AP214' ),
    '1' );
FILE_NAME ('RPSS04-6.step',
    '2017-08-09T17:43:33',
    ( '' ),
    ( '' ),
    'SwSTEP 2.0',
    'SolidWorks 2017',
    '' );
FILE_SCHEMA (( 'AUTOMOTIVE_DESIGN' ));
ENDSEC;

DATA;
#1 = AXIS2_PLACEMENT_3D ( 'NONE', #245, #132, #20 ) ;
#2 = VECTOR ( 'NONE', #56, 39.37007874015748900 ) ;
#3 = DIMENSIONAL_EXPONENTS ( 1.000000000000000000, 0.0000000000000000000, 0.0000000000000000000, 0.0000000000000000000, 0.0000000000000000000, 0.0000000000000000000, 0.0000000000000000000 ) ;
#4 = LINE ( 'NONE', #149, #108 ) ;
#5 = UNCERTAINTY_MEASURE_WITH_UNIT (LENGTH_MEASURE( 1.000000000000000100E-005 ), #99, 'distance_accuracy_value', 'NONE');
#6 = CONICAL_SURFACE ( 'NONE', #112, 0.09500000000000430300, 0.7853981633974502800 ) ;
#7 = LINE ( 'NONE', #92, #157 ) ;
#8 = EDGE_LOOP ( 'NONE', ( #234, #68 ) ) ;
#9 = CIRCLE ( 'NONE', #1, 0.09500000000000430300 ) ;
#10 =( CONVERSION_BASED_UNIT ( 'INCH', #45 ) LENGTH_UNIT ( ) NAMED_UNIT ( #239 ) );
#11 = FACE_OUTER_BOUND ( 'NONE', #8, .T. ) ;
#12 = DIRECTION ( 'NONE',  ( 0.0000000000000000000, 0.0000000000000000000, -1.000000000000000000 ) ) ;
#13 = CIRCLE ( 'NONE', #177, 0.09499999999999664300 ) ;
#14 = ORIENTED_EDGE ( 'NONE', *, *, #163, .F. ) ;
#15 = CARTESIAN_POINT ( 'NONE',  ( 0.0000000000000000000, 0.0000000000000000000, -3.000000000000000400 ) ) ;
#16 = AXIS2_PLACEMENT_3D ( 'NONE', #131, #228, #148 ) ;
#17 = DIRECTION ( 'NONE',  ( -0.0000000000000000000, -0.0000000000000000000, 1.000000000000000000 ) ) ;
#18 = LINE ( 'NONE', #167, #2 ) ;
#19 = ORIENTED_EDGE ( 'NONE', *, *, #80, .F. ) ;
#20 = DIRECTION ( 'NONE',  ( 1.000000000000000000, 0.0000000000000000000, 0.0000000000000000000 ) ) ;
#21 = DIRECTION ( 'NONE',  ( 1.000000000000000000, 0.0000000000000000000, 0.0000000000000000000 ) ) ;
#22 = LINE ( 'NONE', #150, #152 ) ;
#23 = FACE_OUTER_BOUND ( 'NONE', #249, .T. ) ;
#24 = DIRECTION ( 'NONE',  ( 1.000000000000000000, 0.0000000000000000000, 0.0000000000000000000 ) ) ;
#25 = ORIENTED_EDGE ( 'NONE', *, *, #242, .F. ) ;
#26 = STYLED_ITEM ( 'NONE', ( #86 ), #67 ) ;
#27 = ORIENTED_EDGE ( 'NONE', *, *, #194, .T. ) ;
#28 = ADVANCED_FACE ( 'NONE', ( #208 ), #71, .T. ) ;
#29 = EDGE_LOOP ( 'NONE', ( #243, #140, #129, #174 ) ) ;
#30 = AXIS2_PLACEMENT_3D ( 'NONE', #246, #133, #21 ) ;
#31 = LINE ( 'NONE', #51, #84 ) ;
#32 = CLOSED_SHELL ( 'NONE', ( #97, #172, #192, #179, #28, #103, #196, #85 ) ) ;
#33 = PRODUCT ( 'RPSS04-6', 'RPSS04-6', '', ( #154 ) ) ;
#34 = DIRECTION ( 'NONE',  ( 1.000000000000000000, 0.0000000000000000000, -0.0000000000000000000 ) ) ;
#35 =( NAMED_UNIT ( * ) SI_UNIT ( $, .STERADIAN. ) SOLID_ANGLE_UNIT ( ) );
#36 = ORIENTED_EDGE ( 'NONE', *, *, #194, .F. ) ;
#37 = CARTESIAN_POINT ( 'NONE',  ( 0.0000000000000000000, 0.0000000000000000000, 2.970000000000004600 ) ) ;
#38 = AXIS2_PLACEMENT_3D ( 'NONE', #142, #183, #34 ) ;
#39 = SURFACE_STYLE_FILL_AREA ( #61 ) ;
#40 = DIRECTION ( 'NONE',  ( 1.000000000000000000, 0.0000000000000000000, 0.0000000000000000000 ) ) ;
#41 = CARTESIAN_POINT ( 'NONE',  ( 0.1250000000000000000, 1.530808498934191200E-017, -2.969999999999996600 ) ) ;
#42 = CARTESIAN_POINT ( 'NONE',  ( 0.0000000000000000000, 0.0000000000000000000, 2.970000000000004600 ) ) ;
#43 = APPLICATION_CONTEXT ( 'automotive_design' ) ;
#44 =( GEOMETRIC_REPRESENTATION_CONTEXT ( 3 ) GLOBAL_UNCERTAINTY_ASSIGNED_CONTEXT ( ( #98 ) ) GLOBAL_UNIT_ASSIGNED_CONTEXT ( ( #119, #247, #134 ) ) REPRESENTATION_CONTEXT ( 'NONE', 'WORKASPACE' ) );
#45 = LENGTH_MEASURE_WITH_UNIT ( LENGTH_MEASURE( 0.02539999999999999900 ), #127 );
#46 = LENGTH_MEASURE_WITH_UNIT ( LENGTH_MEASURE( 0.02539999999999999900 ), #233 );
#47 = PRESENTATION_LAYER_ASSIGNMENT (  '', '', ( #26 ) ) ;
#48 = CIRCLE ( 'NONE', #137, 0.1250000000000000000 ) ;
#49 = ORIENTED_EDGE ( 'NONE', *, *, #104, .T. ) ;
#50 = ADVANCED_BREP_SHAPE_REPRESENTATION ( 'RPSS04-6', ( #67, #141 ), #44 ) ;
#51 = CARTESIAN_POINT ( 'NONE',  ( -0.1250000000000000000, 0.0000000000000000000, 3.000000000000000400 ) ) ;
#52 = VECTOR ( 'NONE', #59, 39.37007874015748100 ) ;
#53 = DIRECTION ( 'NONE',  ( 1.000000000000000000, 0.0000000000000000000, 0.0000000000000000000 ) ) ;
#54 = DIRECTION ( 'NONE',  ( -0.0000000000000000000, -0.0000000000000000000, 1.000000000000000000 ) ) ;
#55 = VERTEX_POINT ( 'NONE', #89 ) ;
#56 = DIRECTION ( 'NONE',  ( 0.7071067811865489100, 8.659560562354948900E-017, -0.7071067811865460200 ) ) ;
#57 = DIRECTION ( 'NONE',  ( -1.000000000000000000, 0.0000000000000000000, 0.0000000000000000000 ) ) ;
#58 = DIRECTION ( 'NONE',  ( 1.000000000000000000, 0.0000000000000000000, 0.0000000000000000000 ) ) ;
#59 = DIRECTION ( 'NONE',  ( -0.0000000000000000000, -0.0000000000000000000, -1.000000000000000000 ) ) ;
#60 = FILL_AREA_STYLE_COLOUR ( '', #238 ) ;
#61 = FILL_AREA_STYLE ('',( #209 ) ) ;
#62 = MECHANICAL_DESIGN_GEOMETRIC_PRESENTATION_REPRESENTATION (  '', ( #26 ), #74 ) ;
#63 = ORIENTED_EDGE ( 'NONE', *, *, #120, .F. ) ;
#64 = FACE_OUTER_BOUND ( 'NONE', #65, .T. ) ;
#65 = EDGE_LOOP ( 'NONE', ( #36, #146, #122, #14 ) ) ;
#66 = CIRCLE ( 'NONE', #30, 0.1250000000000000000 ) ;
#67 = MANIFOLD_SOLID_BREP ( 'Chamfer1', #32 ) ;
#68 = ORIENTED_EDGE ( 'NONE', *, *, #138, .T. ) ;
#69 = STYLED_ITEM ( 'NONE', ( #237 ), #50 ) ;
#70 = CIRCLE ( 'NONE', #226, 0.1250000000000000000 ) ;
#71 = PLANE ( 'NONE',  #38 ) ;
#72 = DIRECTION ( 'NONE',  ( -0.0000000000000000000, -0.0000000000000000000, -1.000000000000000000 ) ) ;
#73 = EDGE_LOOP ( 'NONE', ( #25, #165, #198, #49 ) ) ;
#74 =( GEOMETRIC_REPRESENTATION_CONTEXT ( 3 ) GLOBAL_UNCERTAINTY_ASSIGNED_CONTEXT ( ( #232 ) ) GLOBAL_UNIT_ASSIGNED_CONTEXT ( ( #10, #143, #35 ) ) REPRESENTATION_CONTEXT ( 'NONE', 'WORKASPACE' ) );
#75 = DIRECTION ( 'NONE',  ( -0.7071067811865489100, 0.0000000000000000000, -0.7071067811865460200 ) ) ;
#76 = DIRECTION ( 'NONE',  ( -0.0000000000000000000, -0.0000000000000000000, -1.000000000000000000 ) ) ;
#77 = CARTESIAN_POINT ( 'NONE',  ( 0.09499999999999664300, 0.0000000000000000000, -3.000000000000000400 ) ) ;
#78 = DIRECTION ( 'NONE',  ( -0.7071067811865424700, 8.659560562354871200E-017, 0.7071067811865524600 ) ) ;
#79 = CARTESIAN_POINT ( 'NONE',  ( 0.1250000000000000000, 1.530808498934191200E-017, 3.000000000000000400 ) ) ;
#80 = EDGE_CURVE ( 'NONE', #161, #206, #31, .T. ) ;
#81 = SURFACE_STYLE_USAGE ( .BOTH. , #193 ) ;
#82 = ORIENTED_EDGE ( 'NONE', *, *, #104, .F. ) ;
#83 = PRESENTATION_LAYER_ASSIGNMENT (  '', '', ( #69 ) ) ;
#84 = VECTOR ( 'NONE', #72, 39.37007874015748100 ) ;
#85 = ADVANCED_FACE ( 'NONE', ( #229 ), #100, .T. ) ;
#86 = PRESENTATION_STYLE_ASSIGNMENT (( #241 ) ) ;
#87 = COLOUR_RGB ( '',0.7921568627450980000, 0.8196078431372548800, 0.9333333333333333500 ) ;
#88 = AXIS2_PLACEMENT_3D ( 'NONE', #185, #203, #248 ) ;
#89 = CARTESIAN_POINT ( 'NONE',  ( -0.09500000000000430300, 0.0000000000000000000, 3.000000000000000400 ) ) ;
#90 = EDGE_CURVE ( 'NONE', #219, #161, #139, .T. ) ;
#91 = CARTESIAN_POINT ( 'NONE',  ( 0.0000000000000000000, 0.0000000000000000000, 3.000000000000000400 ) ) ;
#92 = CARTESIAN_POINT ( 'NONE',  ( -0.09500000000000430300, 0.0000000000000000000, 3.000000000000000400 ) ) ;
#93 = MECHANICAL_DESIGN_GEOMETRIC_PRESENTATION_REPRESENTATION (  '', ( #69 ), #106 ) ;
#94 = DIRECTION ( 'NONE',  ( -0.0000000000000000000, -0.0000000000000000000, -1.000000000000000000 ) ) ;
#95 = CARTESIAN_POINT ( 'NONE',  ( 0.0000000000000000000, 0.0000000000000000000, -2.969999999999996600 ) ) ;
#96 = CARTESIAN_POINT ( 'NONE',  ( 0.09500000000000430300, 1.347111479062114500E-017, 3.000000000000000400 ) ) ;
#97 = ADVANCED_FACE ( 'NONE', ( #64 ), #6, .T. ) ;
#98 = UNCERTAINTY_MEASURE_WITH_UNIT (LENGTH_MEASURE( 1.000000000000000100E-005 ), #119, 'distance_accuracy_value', 'NONE');
#99 =( CONVERSION_BASED_UNIT ( 'INCH', #176 ) LENGTH_UNIT ( ) NAMED_UNIT ( #197 ) );
#100 = CONICAL_SURFACE ( 'NONE', #88, 0.09500000000000430300, 0.7853981633974502800 ) ;
#101 = AXIS2_PLACEMENT_3D ( 'NONE', #37, #164, #53 ) ;
#102 = EDGE_LOOP ( 'NONE', ( #216, #27 ) ) ;
#103 = ADVANCED_FACE ( 'NONE', ( #11 ), #205, .F. ) ;
#104 = EDGE_CURVE ( 'NONE', #206, #170, #48, .T. ) ;
#105 = ORIENTED_EDGE ( 'NONE', *, *, #163, .T. ) ;
#106 =( GEOMETRIC_REPRESENTATION_CONTEXT ( 3 ) GLOBAL_UNCERTAINTY_ASSIGNED_CONTEXT ( ( #5 ) ) GLOBAL_UNIT_ASSIGNED_CONTEXT ( ( #99, #235, #121 ) ) REPRESENTATION_CONTEXT ( 'NONE', 'WORKASPACE' ) );
#107 = SURFACE_SIDE_STYLE ('',( #184 ) ) ;
#108 = VECTOR ( 'NONE', #78, 39.37007874015748900 ) ;
#109 = DIRECTION ( 'NONE',  ( -1.000000000000000000, 0.0000000000000000000, 0.0000000000000000000 ) ) ;
#110 = DIRECTION ( 'NONE',  ( 1.000000000000000000, 0.0000000000000000000, -0.0000000000000000000 ) ) ;
#111 = ORIENTED_EDGE ( 'NONE', *, *, #181, .T. ) ;
#112 = AXIS2_PLACEMENT_3D ( 'NONE', #144, #12, #109 ) ;
#113 = DIRECTION ( 'NONE',  ( 1.000000000000000000, 0.0000000000000000000, 0.0000000000000000000 ) ) ;
#114 = CARTESIAN_POINT ( 'NONE',  ( -0.09499999999999664300, 1.347111479062068100E-017, -3.000000000000000400 ) ) ;
#115 = DIRECTION ( 'NONE',  ( 1.000000000000000000, 0.0000000000000000000, 0.0000000000000000000 ) ) ;
#116 = ORIENTED_EDGE ( 'NONE', *, *, #218, .T. ) ;
#117 = CARTESIAN_POINT ( 'NONE',  ( 0.0000000000000000000, 0.0000000000000000000, 0.0000000000000000000 ) ) ;
#118 = FACE_OUTER_BOUND ( 'NONE', #123, .T. ) ;
#119 =( CONVERSION_BASED_UNIT ( 'INCH', #46 ) LENGTH_UNIT ( ) NAMED_UNIT ( #3 ) );
#120 = EDGE_CURVE ( 'NONE', #55, #222, #224, .T. ) ;
#121 =( NAMED_UNIT ( * ) SI_UNIT ( $, .STERADIAN. ) SOLID_ANGLE_UNIT ( ) );
#122 = ORIENTED_EDGE ( 'NONE', *, *, #181, .F. ) ;
#123 = EDGE_LOOP ( 'NONE', ( #213, #195, #220, #82 ) ) ;
#124 = FACE_OUTER_BOUND ( 'NONE', #73, .T. ) ;
#125 = ORIENTED_EDGE ( 'NONE', *, *, #153, .F. ) ;
#126 = PRODUCT_DEFINITION_CONTEXT ( 'detailed design', #43, 'design' ) ;
#127 =( LENGTH_UNIT ( ) NAMED_UNIT ( * ) SI_UNIT ( $, .METRE. ) );
#128 = EDGE_CURVE ( 'NONE', #178, #159, #13, .T. ) ;
#129 = ORIENTED_EDGE ( 'NONE', *, *, #218, .F. ) ;
#130 = CARTESIAN_POINT ( 'NONE',  ( 0.0000000000000000000, 0.0000000000000000000, -2.969999999999996600 ) ) ;
#131 = CARTESIAN_POINT ( 'NONE',  ( 0.0000000000000000000, 0.0000000000000000000, 3.000000000000000400 ) ) ;
#132 = DIRECTION ( 'NONE',  ( 0.0000000000000000000, 0.0000000000000000000, 1.000000000000000000 ) ) ;
#133 = DIRECTION ( 'NONE',  ( -0.0000000000000000000, -0.0000000000000000000, 1.000000000000000000 ) ) ;
#134 =( NAMED_UNIT ( * ) SI_UNIT ( $, .STERADIAN. ) SOLID_ANGLE_UNIT ( ) );
#135 = CIRCLE ( 'NONE', #187, 0.09499999999999664300 ) ;
#136 = DIRECTION ( 'NONE',  ( 0.0000000000000000000, 0.0000000000000000000, 1.000000000000000000 ) ) ;
#137 = AXIS2_PLACEMENT_3D ( 'NONE', #166, #54, #186 ) ;
#138 = EDGE_CURVE ( 'NONE', #159, #178, #135, .T. ) ;
#139 = CIRCLE ( 'NONE', #101, 0.1250000000000000000 ) ;
#140 = ORIENTED_EDGE ( 'NONE', *, *, #204, .T. ) ;
#141 = AXIS2_PLACEMENT_3D ( 'NONE', #117, #136, #24 ) ;
#142 = CARTESIAN_POINT ( 'NONE',  ( 0.0000000000000000000, 0.0000000000000000000, 3.000000000000000400 ) ) ;
#143 =( NAMED_UNIT ( * ) PLANE_ANGLE_UNIT ( ) SI_UNIT ( $, .RADIAN. ) );
#144 = CARTESIAN_POINT ( 'NONE',  ( 0.0000000000000000000, 0.0000000000000000000, 3.000000000000000400 ) ) ;
#145 = AXIS2_PLACEMENT_3D ( 'NONE', #221, #223, #110 ) ;
#146 = ORIENTED_EDGE ( 'NONE', *, *, #153, .T. ) ;
#147 = DIRECTION ( 'NONE',  ( -0.0000000000000000000, -0.0000000000000000000, -1.000000000000000000 ) ) ;
#148 = DIRECTION ( 'NONE',  ( -1.000000000000000000, 0.0000000000000000000, 0.0000000000000000000 ) ) ;
#149 = CARTESIAN_POINT ( 'NONE',  ( -0.1250000000000000000, 1.530808498934191500E-017, -2.969999999999996600 ) ) ;
#150 = CARTESIAN_POINT ( 'NONE',  ( 0.1250000000000000000, 0.0000000000000000000, -2.969999999999996600 ) ) ;
#151 = APPLICATION_PROTOCOL_DEFINITION ( 'draft international standard', 'automotive_design', 1998, #173 ) ;
#152 = VECTOR ( 'NONE', #171, 39.37007874015748900 ) ;
#153 = EDGE_CURVE ( 'NONE', #222, #219, #18, .T. ) ;
#154 = PRODUCT_CONTEXT ( 'NONE', #173, 'mechanical' ) ;
#155 = ORIENTED_EDGE ( 'NONE', *, *, #242, .T. ) ;
#156 = PRODUCT_DEFINITION ( 'UNKNOWN', '', #168, #126 ) ;
#157 = VECTOR ( 'NONE', #75, 39.37007874015748900 ) ;
#158 = LINE ( 'NONE', #79, #52 ) ;
#159 = VERTEX_POINT ( 'NONE', #114 ) ;
#160 = AXIS2_PLACEMENT_3D ( 'NONE', #91, #225, #113 ) ;
#161 = VERTEX_POINT ( 'NONE', #227 ) ;
#162 = CYLINDRICAL_SURFACE ( 'NONE', #240, 0.1250000000000000000 ) ;
#163 = EDGE_CURVE ( 'NONE', #55, #161, #7, .T. ) ;
#164 = DIRECTION ( 'NONE',  ( 0.0000000000000000000, 0.0000000000000000000, -1.000000000000000000 ) ) ;
#165 = ORIENTED_EDGE ( 'NONE', *, *, #90, .T. ) ;
#166 = CARTESIAN_POINT ( 'NONE',  ( 0.0000000000000000000, 0.0000000000000000000, -2.969999999999996600 ) ) ;
#167 = CARTESIAN_POINT ( 'NONE',  ( 0.09500000000000430300, 1.163414459190038000E-017, 3.000000000000000400 ) ) ;
#168 = PRODUCT_DEFINITION_FORMATION_WITH_SPECIFIED_SOURCE ( 'ANY', '', #33, .NOT_KNOWN. ) ;
#169 = DIRECTION ( 'NONE',  ( 0.0000000000000000000, 0.0000000000000000000, -1.000000000000000000 ) ) ;
#170 = VERTEX_POINT ( 'NONE', #41 ) ;
#171 = DIRECTION ( 'NONE',  ( 0.7071067811865424700, 0.0000000000000000000, 0.7071067811865524600 ) ) ;
#172 = ADVANCED_FACE ( 'NONE', ( #212 ), #217, .T. ) ;
#173 = APPLICATION_CONTEXT ( 'automotive_design' ) ;
#174 = ORIENTED_EDGE ( 'NONE', *, *, #236, .F. ) ;
#175 = APPLICATION_PROTOCOL_DEFINITION ( 'draft international standard', 'automotive_design', 1998, #43 ) ;
#176 = LENGTH_MEASURE_WITH_UNIT ( LENGTH_MEASURE( 0.02539999999999999900 ), #211 );
#177 = AXIS2_PLACEMENT_3D ( 'NONE', #15, #147, #40 ) ;
#178 = VERTEX_POINT ( 'NONE', #77 ) ;
#179 = ADVANCED_FACE ( 'NONE', ( #124 ), #162, .T. ) ;
#180 = EDGE_LOOP ( 'NONE', ( #125, #63, #105, #230 ) ) ;
#181 = EDGE_CURVE ( 'NONE', #161, #219, #70, .T. ) ;
#182 = PRODUCT_RELATED_PRODUCT_CATEGORY ( 'part', '', ( #33 ) ) ;
#183 = DIRECTION ( 'NONE',  ( 0.0000000000000000000, 0.0000000000000000000, 1.000000000000000000 ) ) ;
#184 = SURFACE_STYLE_FILL_AREA ( #201 ) ;
#185 = CARTESIAN_POINT ( 'NONE',  ( 0.0000000000000000000, 0.0000000000000000000, 3.000000000000000400 ) ) ;
#186 = DIRECTION ( 'NONE',  ( 1.000000000000000000, 0.0000000000000000000, 0.0000000000000000000 ) ) ;
#187 = AXIS2_PLACEMENT_3D ( 'NONE', #188, #76, #207 ) ;
#188 = CARTESIAN_POINT ( 'NONE',  ( 0.0000000000000000000, 0.0000000000000000000, -3.000000000000000400 ) ) ;
#189 = CARTESIAN_POINT ( 'NONE',  ( 0.0000000000000000000, 0.0000000000000000000, 3.000000000000000400 ) ) ;
#190 = DIRECTION ( 'NONE',  ( -0.0000000000000000000, -0.0000000000000000000, 1.000000000000000000 ) ) ;
#191 = CARTESIAN_POINT ( 'NONE',  ( -0.1250000000000000000, 0.0000000000000000000, -2.969999999999996600 ) ) ;
#192 = ADVANCED_FACE ( 'NONE', ( #23 ), #210, .T. ) ;
#193 = SURFACE_SIDE_STYLE ('',( #39 ) ) ;
#194 = EDGE_CURVE ( 'NONE', #222, #55, #9, .T. ) ;
#195 = ORIENTED_EDGE ( 'NONE', *, *, #128, .F. ) ;
#196 = ADVANCED_FACE ( 'NONE', ( #118 ), #202, .T. ) ;
#197 = DIMENSIONAL_EXPONENTS ( 1.000000000000000000, 0.0000000000000000000, 0.0000000000000000000, 0.0000000000000000000, 0.0000000000000000000, 0.0000000000000000000, 0.0000000000000000000 ) ;
#198 = ORIENTED_EDGE ( 'NONE', *, *, #80, .T. ) ;
#199 = AXIS2_PLACEMENT_3D ( 'NONE', #130, #17, #244 ) ;
#200 = PRODUCT_DEFINITION_SHAPE ( 'NONE', 'NONE',  #156 ) ;
#201 = FILL_AREA_STYLE ('',( #60 ) ) ;
#202 = CONICAL_SURFACE ( 'NONE', #214, 0.1250000000000000000, 0.7853981633974412800 ) ;
#203 = DIRECTION ( 'NONE',  ( 0.0000000000000000000, 0.0000000000000000000, -1.000000000000000000 ) ) ;
#204 = EDGE_CURVE ( 'NONE', #159, #206, #4, .T. ) ;
#205 = PLANE ( 'NONE',  #145 ) ;
#206 = VERTEX_POINT ( 'NONE', #191 ) ;
#207 = DIRECTION ( 'NONE',  ( 1.000000000000000000, 0.0000000000000000000, 0.0000000000000000000 ) ) ;
#208 = FACE_OUTER_BOUND ( 'NONE', #102, .T. ) ;
#209 = FILL_AREA_STYLE_COLOUR ( '', #87 ) ;
#210 = CYLINDRICAL_SURFACE ( 'NONE', #16, 0.1250000000000000000 ) ;
#211 =( LENGTH_UNIT ( ) NAMED_UNIT ( * ) SI_UNIT ( $, .METRE. ) );
#212 = FACE_OUTER_BOUND ( 'NONE', #29, .T. ) ;
#213 = ORIENTED_EDGE ( 'NONE', *, *, #204, .F. ) ;
#214 = AXIS2_PLACEMENT_3D ( 'NONE', #95, #190, #115 ) ;
#215 = SHAPE_DEFINITION_REPRESENTATION ( #200, #50 ) ;
#216 = ORIENTED_EDGE ( 'NONE', *, *, #120, .T. ) ;
#217 = CONICAL_SURFACE ( 'NONE', #199, 0.1250000000000000000, 0.7853981633974412800 ) ;
#218 = EDGE_CURVE ( 'NONE', #170, #206, #66, .T. ) ;
#219 = VERTEX_POINT ( 'NONE', #231 ) ;
#220 = ORIENTED_EDGE ( 'NONE', *, *, #236, .T. ) ;
#221 = CARTESIAN_POINT ( 'NONE',  ( 0.0000000000000000000, 0.0000000000000000000, -3.000000000000000400 ) ) ;
#222 = VERTEX_POINT ( 'NONE', #96 ) ;
#223 = DIRECTION ( 'NONE',  ( 0.0000000000000000000, 0.0000000000000000000, 1.000000000000000000 ) ) ;
#224 = CIRCLE ( 'NONE', #160, 0.09500000000000430300 ) ;
#225 = DIRECTION ( 'NONE',  ( 0.0000000000000000000, 0.0000000000000000000, 1.000000000000000000 ) ) ;
#226 = AXIS2_PLACEMENT_3D ( 'NONE', #42, #169, #58 ) ;
#227 = CARTESIAN_POINT ( 'NONE',  ( -0.1250000000000000000, 0.0000000000000000000, 2.970000000000004600 ) ) ;
#228 = DIRECTION ( 'NONE',  ( -0.0000000000000000000, -0.0000000000000000000, -1.000000000000000000 ) ) ;
#229 = FACE_OUTER_BOUND ( 'NONE', #180, .T. ) ;
#230 = ORIENTED_EDGE ( 'NONE', *, *, #90, .F. ) ;
#231 = CARTESIAN_POINT ( 'NONE',  ( 0.1250000000000000000, 1.530808498934191200E-017, 2.970000000000004600 ) ) ;
#232 = UNCERTAINTY_MEASURE_WITH_UNIT (LENGTH_MEASURE( 1.000000000000000100E-005 ), #10, 'distance_accuracy_value', 'NONE');
#233 =( LENGTH_UNIT ( ) NAMED_UNIT ( * ) SI_UNIT ( $, .METRE. ) );
#234 = ORIENTED_EDGE ( 'NONE', *, *, #128, .T. ) ;
#235 =( NAMED_UNIT ( * ) PLANE_ANGLE_UNIT ( ) SI_UNIT ( $, .RADIAN. ) );
#236 = EDGE_CURVE ( 'NONE', #178, #170, #22, .T. ) ;
#237 = PRESENTATION_STYLE_ASSIGNMENT (( #81 ) ) ;
#238 = COLOUR_RGB ( '',0.7921568627450980000, 0.8196078431372548800, 0.9333333333333333500 ) ;
#239 = DIMENSIONAL_EXPONENTS ( 1.000000000000000000, 0.0000000000000000000, 0.0000000000000000000, 0.0000000000000000000, 0.0000000000000000000, 0.0000000000000000000, 0.0000000000000000000 ) ;
#240 = AXIS2_PLACEMENT_3D ( 'NONE', #189, #94, #57 ) ;
#241 = SURFACE_STYLE_USAGE ( .BOTH. , #107 ) ;
#242 = EDGE_CURVE ( 'NONE', #219, #170, #158, .T. ) ;
#243 = ORIENTED_EDGE ( 'NONE', *, *, #138, .F. ) ;
#244 = DIRECTION ( 'NONE',  ( 1.000000000000000000, 0.0000000000000000000, 0.0000000000000000000 ) ) ;
#245 = CARTESIAN_POINT ( 'NONE',  ( 0.0000000000000000000, 0.0000000000000000000, 3.000000000000000400 ) ) ;
#246 = CARTESIAN_POINT ( 'NONE',  ( 0.0000000000000000000, 0.0000000000000000000, -2.969999999999996600 ) ) ;
#247 =( NAMED_UNIT ( * ) PLANE_ANGLE_UNIT ( ) SI_UNIT ( $, .RADIAN. ) );
#248 = DIRECTION ( 'NONE',  ( -1.000000000000000000, 0.0000000000000000000, 0.0000000000000000000 ) ) ;
#249 = EDGE_LOOP ( 'NONE', ( #111, #155, #116, #19 ) ) ;
ENDSEC;
END-ISO-10303-21;
