ISO-10303-21;
HEADER;
FILE_DESCRIPTION (( 'STEP AP214' ),
    '1' );
FILE_NAME ('RPSS06-12.step',
    '2017-08-09T17:44:37',
    ( '' ),
    ( '' ),
    'SwSTEP 2.0',
    'SolidWorks 2017',
    '' );
FILE_SCHEMA (( 'AUTOMOTIVE_DESIGN' ));
ENDSEC;

DATA;
#1 = FACE_OUTER_BOUND ( 'NONE', #199, .T. ) ;
#2 = CIRCLE ( 'NONE', #213, 0.1574999999999908400 ) ;
#3 =( GEOMETRIC_REPRESENTATION_CONTEXT ( 3 ) GLOBAL_UNCERTAINTY_ASSIGNED_CONTEXT ( ( #45 ) ) GLOBAL_UNIT_ASSIGNED_CONTEXT ( ( #237, #33, #80 ) ) REPRESENTATION_CONTEXT ( 'NONE', 'WORKASPACE' ) );
#4 = VECTOR ( 'NONE', #220, 39.37007874015748100 ) ;
#5 = FILL_AREA_STYLE ('',( #132 ) ) ;
#6 = CARTESIAN_POINT ( 'NONE',  ( 0.0000000000000000000, 0.0000000000000000000, -6.000000000000000900 ) ) ;
#7 = DIRECTION ( 'NONE',  ( -0.0000000000000000000, -0.0000000000000000000, -1.000000000000000000 ) ) ;
#8 = ADVANCED_FACE ( 'NONE', ( #1 ), #48, .T. ) ;
#9 = EDGE_LOOP ( 'NONE', ( #17, #104, #12, #39 ) ) ;
#10 = DIRECTION ( 'NONE',  ( 1.000000000000000000, 0.0000000000000000000, 0.0000000000000000000 ) ) ;
#11 = CARTESIAN_POINT ( 'NONE',  ( 0.0000000000000000000, 0.0000000000000000000, 0.0000000000000000000 ) ) ;
#12 = ORIENTED_EDGE ( 'NONE', *, *, #105, .F. ) ;
#13 = FACE_OUTER_BOUND ( 'NONE', #173, .T. ) ;
#14 = CARTESIAN_POINT ( 'NONE',  ( 0.0000000000000000000, 0.0000000000000000000, -5.969999999999992600 ) ) ;
#15 = PRODUCT_DEFINITION_CONTEXT ( 'detailed design', #235, 'design' ) ;
#16 = AXIS2_PLACEMENT_3D ( 'NONE', #192, #174, #50 ) ;
#17 = ORIENTED_EDGE ( 'NONE', *, *, #121, .F. ) ;
#18 = ORIENTED_EDGE ( 'NONE', *, *, #67, .F. ) ;
#19 = LINE ( 'NONE', #35, #170 ) ;
#20 = CARTESIAN_POINT ( 'NONE',  ( 0.0000000000000000000, 0.0000000000000000000, -5.969999999999992600 ) ) ;
#21 = MANIFOLD_SOLID_BREP ( 'Chamfer1', #112 ) ;
#22 = EDGE_LOOP ( 'NONE', ( #159, #18, #99, #116 ) ) ;
#23 = SURFACE_STYLE_USAGE ( .BOTH. , #143 ) ;
#24 = DIRECTION ( 'NONE',  ( 1.000000000000000000, 0.0000000000000000000, -0.0000000000000000000 ) ) ;
#25 = DIRECTION ( 'NONE',  ( 0.0000000000000000000, 0.0000000000000000000, -1.000000000000000000 ) ) ;
#26 = STYLED_ITEM ( 'NONE', ( #153 ), #21 ) ;
#27 = CYLINDRICAL_SURFACE ( 'NONE', #244, 0.1875000000000000300 ) ;
#28 = CARTESIAN_POINT ( 'NONE',  ( -0.1875000000000000300, 0.0000000000000000000, 6.000000000000000900 ) ) ;
#29 = DIRECTION ( 'NONE',  ( 0.0000000000000000000, 0.0000000000000000000, 1.000000000000000000 ) ) ;
#30 = DIMENSIONAL_EXPONENTS ( 1.000000000000000000, 0.0000000000000000000, 0.0000000000000000000, 0.0000000000000000000, 0.0000000000000000000, 0.0000000000000000000, 0.0000000000000000000 ) ;
#31 = AXIS2_PLACEMENT_3D ( 'NONE', #106, #29, #168 ) ;
#32 = DIRECTION ( 'NONE',  ( -0.0000000000000000000, -0.0000000000000000000, 1.000000000000000000 ) ) ;
#33 =( NAMED_UNIT ( * ) PLANE_ANGLE_UNIT ( ) SI_UNIT ( $, .RADIAN. ) );
#34 = VERTEX_POINT ( 'NONE', #150 ) ;
#35 = CARTESIAN_POINT ( 'NONE',  ( -0.1875000000000000300, 2.296212748401287700E-017, -5.969999999999992600 ) ) ;
#36 = DIRECTION ( 'NONE',  ( 1.000000000000000000, 0.0000000000000000000, 0.0000000000000000000 ) ) ;
#37 = CONICAL_SURFACE ( 'NONE', #81, 0.1875000000000000300, 0.7853981633974653800 ) ;
#38 = PRESENTATION_LAYER_ASSIGNMENT (  '', '', ( #26 ) ) ;
#39 = ORIENTED_EDGE ( 'NONE', *, *, #94, .F. ) ;
#40 = PRESENTATION_STYLE_ASSIGNMENT (( #23 ) ) ;
#41 = LENGTH_MEASURE_WITH_UNIT ( LENGTH_MEASURE( 0.02539999999999999900 ), #226 );
#42 = AXIS2_PLACEMENT_3D ( 'NONE', #223, #109, #242 ) ;
#43 =( CONVERSION_BASED_UNIT ( 'INCH', #232 ) LENGTH_UNIT ( ) NAMED_UNIT ( #88 ) );
#44 = CARTESIAN_POINT ( 'NONE',  ( 0.1875000000000000300, 2.296212748401286800E-017, 6.000000000000000900 ) ) ;
#45 = UNCERTAINTY_MEASURE_WITH_UNIT (LENGTH_MEASURE( 1.000000000000000100E-005 ), #237, 'distance_accuracy_value', 'NONE');
#46 = EDGE_LOOP ( 'NONE', ( #122, #152, #63, #53 ) ) ;
#47 = DIRECTION ( 'NONE',  ( 0.7071067811865466800, 8.659560562354923000E-017, -0.7071067811865483500 ) ) ;
#48 = CYLINDRICAL_SURFACE ( 'NONE', #16, 0.1875000000000000300 ) ;
#49 = FACE_OUTER_BOUND ( 'NONE', #146, .T. ) ;
#50 = DIRECTION ( 'NONE',  ( -1.000000000000000000, 0.0000000000000000000, 0.0000000000000000000 ) ) ;
#51 = DIRECTION ( 'NONE',  ( -0.0000000000000000000, -0.0000000000000000000, -1.000000000000000000 ) ) ;
#52 = CARTESIAN_POINT ( 'NONE',  ( -0.1875000000000000300, 0.0000000000000000000, -5.969999999999992600 ) ) ;
#53 = ORIENTED_EDGE ( 'NONE', *, *, #196, .F. ) ;
#54 = EDGE_CURVE ( 'NONE', #77, #93, #57, .T. ) ;
#55 = ORIENTED_EDGE ( 'NONE', *, *, #79, .F. ) ;
#56 = ORIENTED_EDGE ( 'NONE', *, *, #54, .T. ) ;
#57 = CIRCLE ( 'NONE', #228, 0.1575000000000072500 ) ;
#58 = DIRECTION ( 'NONE',  ( 0.7071067811865595600, 0.0000000000000000000, 0.7071067811865354700 ) ) ;
#59 = CONICAL_SURFACE ( 'NONE', #115, 0.1575000000000072500, 0.7853981633974471700 ) ;
#60 = CARTESIAN_POINT ( 'NONE',  ( 0.1875000000000000300, 0.0000000000000000000, -5.969999999999992600 ) ) ;
#61 = VERTEX_POINT ( 'NONE', #73 ) ;
#62 = VERTEX_POINT ( 'NONE', #52 ) ;
#63 = ORIENTED_EDGE ( 'NONE', *, *, #147, .T. ) ;
#64 = VECTOR ( 'NONE', #47, 39.37007874015748100 ) ;
#65 =( NAMED_UNIT ( * ) SI_UNIT ( $, .STERADIAN. ) SOLID_ANGLE_UNIT ( ) );
#66 = CARTESIAN_POINT ( 'NONE',  ( 0.0000000000000000000, 0.0000000000000000000, -5.969999999999992600 ) ) ;
#67 = EDGE_CURVE ( 'NONE', #71, #107, #2, .T. ) ;
#68 = PLANE ( 'NONE',  #31 ) ;
#69 = ADVANCED_FACE ( 'NONE', ( #111 ), #197, .T. ) ;
#70 = DIRECTION ( 'NONE',  ( -1.000000000000000000, 0.0000000000000000000, 0.0000000000000000000 ) ) ;
#71 = VERTEX_POINT ( 'NONE', #90 ) ;
#72 = CIRCLE ( 'NONE', #163, 0.1875000000000000300 ) ;
#73 = CARTESIAN_POINT ( 'NONE',  ( 0.1875000000000000300, 2.296212748401286800E-017, 5.970000000000007700 ) ) ;
#74 = AXIS2_PLACEMENT_3D ( 'NONE', #241, #130, #10 ) ;
#75 = DIRECTION ( 'NONE',  ( 1.000000000000000000, 0.0000000000000000000, 0.0000000000000000000 ) ) ;
#76 = DIRECTION ( 'NONE',  ( 0.0000000000000000000, 0.0000000000000000000, 1.000000000000000000 ) ) ;
#77 = VERTEX_POINT ( 'NONE', #227 ) ;
#78 = DIRECTION ( 'NONE',  ( 0.0000000000000000000, 0.0000000000000000000, 1.000000000000000000 ) ) ;
#79 = EDGE_CURVE ( 'NONE', #107, #71, #160, .T. ) ;
#80 =( NAMED_UNIT ( * ) SI_UNIT ( $, .STERADIAN. ) SOLID_ANGLE_UNIT ( ) );
#81 = AXIS2_PLACEMENT_3D ( 'NONE', #66, #238, #180 ) ;
#82 = CARTESIAN_POINT ( 'NONE',  ( 0.1575000000000072500, 2.112515728529228900E-017, 6.000000000000000900 ) ) ;
#83 = DIRECTION ( 'NONE',  ( 0.0000000000000000000, 0.0000000000000000000, 1.000000000000000000 ) ) ;
#84 = DIRECTION ( 'NONE',  ( -0.7071067811865466800, 0.0000000000000000000, -0.7071067811865483500 ) ) ;
#85 = ADVANCED_FACE ( 'NONE', ( #49 ), #126, .F. ) ;
#86 = ORIENTED_EDGE ( 'NONE', *, *, #94, .T. ) ;
#87 =( LENGTH_UNIT ( ) NAMED_UNIT ( * ) SI_UNIT ( $, .METRE. ) );
#88 = DIMENSIONAL_EXPONENTS ( 1.000000000000000000, 0.0000000000000000000, 0.0000000000000000000, 0.0000000000000000000, 0.0000000000000000000, 0.0000000000000000000, 0.0000000000000000000 ) ;
#89 = SURFACE_STYLE_USAGE ( .BOTH. , #204 ) ;
#90 = CARTESIAN_POINT ( 'NONE',  ( 0.1574999999999908400, 0.0000000000000000000, -6.000000000000000900 ) ) ;
#91 = FACE_OUTER_BOUND ( 'NONE', #118, .T. ) ;
#92 = UNCERTAINTY_MEASURE_WITH_UNIT (LENGTH_MEASURE( 1.000000000000000100E-005 ), #114, 'distance_accuracy_value', 'NONE');
#93 = VERTEX_POINT ( 'NONE', #82 ) ;
#94 = EDGE_CURVE ( 'NONE', #77, #210, #201, .T. ) ;
#95 = SURFACE_STYLE_FILL_AREA ( #5 ) ;
#96 = SHAPE_DEFINITION_REPRESENTATION ( #127, #249 ) ;
#97 = DIRECTION ( 'NONE',  ( -0.7071067811865595600, 8.659560562355079500E-017, 0.7071067811865354700 ) ) ;
#98 = AXIS2_PLACEMENT_3D ( 'NONE', #145, #25, #165 ) ;
#99 = ORIENTED_EDGE ( 'NONE', *, *, #158, .T. ) ;
#100 = SURFACE_STYLE_FILL_AREA ( #243 ) ;
#101 = APPLICATION_PROTOCOL_DEFINITION ( 'draft international standard', 'automotive_design', 1998, #124 ) ;
#102 = DIRECTION ( 'NONE',  ( -0.0000000000000000000, -0.0000000000000000000, -1.000000000000000000 ) ) ;
#103 = PRODUCT_CONTEXT ( 'NONE', #124, 'mechanical' ) ;
#104 = ORIENTED_EDGE ( 'NONE', *, *, #184, .T. ) ;
#105 = EDGE_CURVE ( 'NONE', #210, #61, #72, .T. ) ;
#106 = CARTESIAN_POINT ( 'NONE',  ( 0.0000000000000000000, 0.0000000000000000000, 6.000000000000000900 ) ) ;
#107 = VERTEX_POINT ( 'NONE', #179 ) ;
#108 = EDGE_LOOP ( 'NONE', ( #55, #215, #246, #208 ) ) ;
#109 = DIRECTION ( 'NONE',  ( -0.0000000000000000000, -0.0000000000000000000, 1.000000000000000000 ) ) ;
#110 = FILL_AREA_STYLE_COLOUR ( '', #214 ) ;
#111 = FACE_OUTER_BOUND ( 'NONE', #108, .T. ) ;
#112 = CLOSED_SHELL ( 'NONE', ( #149, #69, #240, #8, #221, #85, #182, #167 ) ) ;
#113 = LINE ( 'NONE', #60, #211 ) ;
#114 =( CONVERSION_BASED_UNIT ( 'INCH', #41 ) LENGTH_UNIT ( ) NAMED_UNIT ( #131 ) );
#115 = AXIS2_PLACEMENT_3D ( 'NONE', #138, #120, #176 ) ;
#116 = ORIENTED_EDGE ( 'NONE', *, *, #222, .F. ) ;
#117 = PRODUCT_RELATED_PRODUCT_CATEGORY ( 'part', '', ( #229 ) ) ;
#118 = EDGE_LOOP ( 'NONE', ( #56, #191 ) ) ;
#119 = FACE_OUTER_BOUND ( 'NONE', #9, .T. ) ;
#120 = DIRECTION ( 'NONE',  ( 0.0000000000000000000, 0.0000000000000000000, -1.000000000000000000 ) ) ;
#121 = EDGE_CURVE ( 'NONE', #93, #77, #123, .T. ) ;
#122 = ORIENTED_EDGE ( 'NONE', *, *, #105, .T. ) ;
#123 = CIRCLE ( 'NONE', #139, 0.1575000000000072500 ) ;
#124 = APPLICATION_CONTEXT ( 'automotive_design' ) ;
#125 = AXIS2_PLACEMENT_3D ( 'NONE', #20, #157, #36 ) ;
#126 = PLANE ( 'NONE',  #151 ) ;
#127 = PRODUCT_DEFINITION_SHAPE ( 'NONE', 'NONE',  #142 ) ;
#128 = APPLICATION_PROTOCOL_DEFINITION ( 'draft international standard', 'automotive_design', 1998, #235 ) ;
#129 = LENGTH_MEASURE_WITH_UNIT ( LENGTH_MEASURE( 0.02539999999999999900 ), #87 );
#130 = DIRECTION ( 'NONE',  ( 0.0000000000000000000, 0.0000000000000000000, -1.000000000000000000 ) ) ;
#131 = DIMENSIONAL_EXPONENTS ( 1.000000000000000000, 0.0000000000000000000, 0.0000000000000000000, 0.0000000000000000000, 0.0000000000000000000, 0.0000000000000000000, 0.0000000000000000000 ) ;
#132 = FILL_AREA_STYLE_COLOUR ( '', #148 ) ;
#133 = ORIENTED_EDGE ( 'NONE', *, *, #209, .F. ) ;
#134 = PRODUCT_DEFINITION_FORMATION_WITH_SPECIFIED_SOURCE ( 'ANY', '', #229, .NOT_KNOWN. ) ;
#135 =( NAMED_UNIT ( * ) SI_UNIT ( $, .STERADIAN. ) SOLID_ANGLE_UNIT ( ) );
#136 = EDGE_CURVE ( 'NONE', #107, #62, #19, .T. ) ;
#137 = DIRECTION ( 'NONE',  ( 1.000000000000000000, 0.0000000000000000000, 0.0000000000000000000 ) ) ;
#138 = CARTESIAN_POINT ( 'NONE',  ( 0.0000000000000000000, 0.0000000000000000000, 6.000000000000000900 ) ) ;
#139 = AXIS2_PLACEMENT_3D ( 'NONE', #194, #78, #212 ) ;
#140 = VECTOR ( 'NONE', #7, 39.37007874015748100 ) ;
#141 = ORIENTED_EDGE ( 'NONE', *, *, #172, .F. ) ;
#142 = PRODUCT_DEFINITION ( 'UNKNOWN', '', #134, #15 ) ;
#143 = SURFACE_SIDE_STYLE ('',( #95 ) ) ;
#144 = DIRECTION ( 'NONE',  ( 0.0000000000000000000, 0.0000000000000000000, 1.000000000000000000 ) ) ;
#145 = CARTESIAN_POINT ( 'NONE',  ( 0.0000000000000000000, 0.0000000000000000000, 6.000000000000000900 ) ) ;
#146 = EDGE_LOOP ( 'NONE', ( #169, #195 ) ) ;
#147 = EDGE_CURVE ( 'NONE', #34, #62, #216, .T. ) ;
#148 = COLOUR_RGB ( '',0.7921568627450980000, 0.8196078431372548800, 0.9333333333333333500 ) ;
#149 = ADVANCED_FACE ( 'NONE', ( #119 ), #59, .T. ) ;
#150 = CARTESIAN_POINT ( 'NONE',  ( 0.1875000000000000300, 2.296212748401286800E-017, -5.969999999999992600 ) ) ;
#151 = AXIS2_PLACEMENT_3D ( 'NONE', #6, #144, #24 ) ;
#152 = ORIENTED_EDGE ( 'NONE', *, *, #172, .T. ) ;
#153 = PRESENTATION_STYLE_ASSIGNMENT (( #89 ) ) ;
#154 = CONICAL_SURFACE ( 'NONE', #98, 0.1575000000000072500, 0.7853981633974471700 ) ;
#155 = AXIS2_PLACEMENT_3D ( 'NONE', #11, #83, #219 ) ;
#156 = LINE ( 'NONE', #44, #4 ) ;
#157 = DIRECTION ( 'NONE',  ( -0.0000000000000000000, -0.0000000000000000000, 1.000000000000000000 ) ) ;
#158 = EDGE_CURVE ( 'NONE', #71, #34, #113, .T. ) ;
#159 = ORIENTED_EDGE ( 'NONE', *, *, #136, .F. ) ;
#160 = CIRCLE ( 'NONE', #189, 0.1574999999999908400 ) ;
#161 = ORIENTED_EDGE ( 'NONE', *, *, #196, .T. ) ;
#162 =( LENGTH_UNIT ( ) NAMED_UNIT ( * ) SI_UNIT ( $, .METRE. ) );
#163 = AXIS2_PLACEMENT_3D ( 'NONE', #205, #185, #137 ) ;
#164 = CARTESIAN_POINT ( 'NONE',  ( -0.1575000000000072500, 0.0000000000000000000, 6.000000000000000900 ) ) ;
#165 = DIRECTION ( 'NONE',  ( -1.000000000000000000, 0.0000000000000000000, 0.0000000000000000000 ) ) ;
#166 = CARTESIAN_POINT ( 'NONE',  ( 0.1575000000000072500, 1.928818708657170100E-017, 6.000000000000000900 ) ) ;
#167 = ADVANCED_FACE ( 'NONE', ( #13 ), #154, .T. ) ;
#168 = DIRECTION ( 'NONE',  ( 1.000000000000000000, 0.0000000000000000000, -0.0000000000000000000 ) ) ;
#169 = ORIENTED_EDGE ( 'NONE', *, *, #67, .T. ) ;
#170 = VECTOR ( 'NONE', #97, 39.37007874015748100 ) ;
#171 = CARTESIAN_POINT ( 'NONE',  ( 0.0000000000000000000, 0.0000000000000000000, -6.000000000000000900 ) ) ;
#172 = EDGE_CURVE ( 'NONE', #61, #34, #156, .T. ) ;
#173 = EDGE_LOOP ( 'NONE', ( #224, #247, #86, #133 ) ) ;
#174 = DIRECTION ( 'NONE',  ( -0.0000000000000000000, -0.0000000000000000000, -1.000000000000000000 ) ) ;
#175 = LINE ( 'NONE', #166, #64 ) ;
#176 = DIRECTION ( 'NONE',  ( -1.000000000000000000, 0.0000000000000000000, 0.0000000000000000000 ) ) ;
#177 = ORIENTED_EDGE ( 'NONE', *, *, #209, .T. ) ;
#178 =( NAMED_UNIT ( * ) PLANE_ANGLE_UNIT ( ) SI_UNIT ( $, .RADIAN. ) );
#179 = CARTESIAN_POINT ( 'NONE',  ( -0.1574999999999908400, 2.112515728529128100E-017, -6.000000000000000900 ) ) ;
#180 = DIRECTION ( 'NONE',  ( 1.000000000000000000, 0.0000000000000000000, 0.0000000000000000000 ) ) ;
#181 = FACE_OUTER_BOUND ( 'NONE', #46, .T. ) ;
#182 = ADVANCED_FACE ( 'NONE', ( #203 ), #37, .T. ) ;
#183 = CARTESIAN_POINT ( 'NONE',  ( -0.1875000000000000300, 0.0000000000000000000, 5.970000000000007700 ) ) ;
#184 = EDGE_CURVE ( 'NONE', #93, #61, #175, .T. ) ;
#185 = DIRECTION ( 'NONE',  ( 0.0000000000000000000, 0.0000000000000000000, -1.000000000000000000 ) ) ;
#186 = DIRECTION ( 'NONE',  ( -0.0000000000000000000, -0.0000000000000000000, -1.000000000000000000 ) ) ;
#187 = DIRECTION ( 'NONE',  ( 1.000000000000000000, 0.0000000000000000000, 0.0000000000000000000 ) ) ;
#188 = CARTESIAN_POINT ( 'NONE',  ( 0.0000000000000000000, 0.0000000000000000000, 6.000000000000000900 ) ) ;
#189 = AXIS2_PLACEMENT_3D ( 'NONE', #218, #102, #233 ) ;
#190 = LINE ( 'NONE', #28, #140 ) ;
#191 = ORIENTED_EDGE ( 'NONE', *, *, #121, .T. ) ;
#192 = CARTESIAN_POINT ( 'NONE',  ( 0.0000000000000000000, 0.0000000000000000000, 6.000000000000000900 ) ) ;
#193 =( GEOMETRIC_REPRESENTATION_CONTEXT ( 3 ) GLOBAL_UNCERTAINTY_ASSIGNED_CONTEXT ( ( #207 ) ) GLOBAL_UNIT_ASSIGNED_CONTEXT ( ( #43, #178, #65 ) ) REPRESENTATION_CONTEXT ( 'NONE', 'WORKASPACE' ) );
#194 = CARTESIAN_POINT ( 'NONE',  ( 0.0000000000000000000, 0.0000000000000000000, 6.000000000000000900 ) ) ;
#195 = ORIENTED_EDGE ( 'NONE', *, *, #79, .T. ) ;
#196 = EDGE_CURVE ( 'NONE', #210, #62, #190, .T. ) ;
#197 = CONICAL_SURFACE ( 'NONE', #198, 0.1875000000000000300, 0.7853981633974653800 ) ;
#198 = AXIS2_PLACEMENT_3D ( 'NONE', #14, #32, #75 ) ;
#199 = EDGE_LOOP ( 'NONE', ( #141, #177, #161, #239 ) ) ;
#200 = CARTESIAN_POINT ( 'NONE',  ( 0.0000000000000000000, 0.0000000000000000000, 6.000000000000000900 ) ) ;
#201 = LINE ( 'NONE', #164, #225 ) ;
#202 = MECHANICAL_DESIGN_GEOMETRIC_PRESENTATION_REPRESENTATION (  '', ( #230 ), #193 ) ;
#203 = FACE_OUTER_BOUND ( 'NONE', #22, .T. ) ;
#204 = SURFACE_SIDE_STYLE ('',( #100 ) ) ;
#205 = CARTESIAN_POINT ( 'NONE',  ( 0.0000000000000000000, 0.0000000000000000000, 5.970000000000007700 ) ) ;
#206 = DIRECTION ( 'NONE',  ( 1.000000000000000000, 0.0000000000000000000, 0.0000000000000000000 ) ) ;
#207 = UNCERTAINTY_MEASURE_WITH_UNIT (LENGTH_MEASURE( 1.000000000000000100E-005 ), #43, 'distance_accuracy_value', 'NONE');
#208 = ORIENTED_EDGE ( 'NONE', *, *, #158, .F. ) ;
#209 = EDGE_CURVE ( 'NONE', #61, #210, #234, .T. ) ;
#210 = VERTEX_POINT ( 'NONE', #183 ) ;
#211 = VECTOR ( 'NONE', #58, 39.37007874015748100 ) ;
#212 = DIRECTION ( 'NONE',  ( 1.000000000000000000, 0.0000000000000000000, 0.0000000000000000000 ) ) ;
#213 = AXIS2_PLACEMENT_3D ( 'NONE', #171, #51, #187 ) ;
#214 = COLOUR_RGB ( '',0.7921568627450980000, 0.8196078431372548800, 0.9333333333333333500 ) ;
#215 = ORIENTED_EDGE ( 'NONE', *, *, #136, .T. ) ;
#216 = CIRCLE ( 'NONE', #125, 0.1875000000000000300 ) ;
#217 = PRESENTATION_LAYER_ASSIGNMENT (  '', '', ( #230 ) ) ;
#218 = CARTESIAN_POINT ( 'NONE',  ( 0.0000000000000000000, 0.0000000000000000000, -6.000000000000000900 ) ) ;
#219 = DIRECTION ( 'NONE',  ( 1.000000000000000000, 0.0000000000000000000, 0.0000000000000000000 ) ) ;
#220 = DIRECTION ( 'NONE',  ( -0.0000000000000000000, -0.0000000000000000000, -1.000000000000000000 ) ) ;
#221 = ADVANCED_FACE ( 'NONE', ( #91 ), #68, .T. ) ;
#222 = EDGE_CURVE ( 'NONE', #62, #34, #231, .T. ) ;
#223 = CARTESIAN_POINT ( 'NONE',  ( 0.0000000000000000000, 0.0000000000000000000, -5.969999999999992600 ) ) ;
#224 = ORIENTED_EDGE ( 'NONE', *, *, #184, .F. ) ;
#225 = VECTOR ( 'NONE', #84, 39.37007874015748100 ) ;
#226 =( LENGTH_UNIT ( ) NAMED_UNIT ( * ) SI_UNIT ( $, .METRE. ) );
#227 = CARTESIAN_POINT ( 'NONE',  ( -0.1575000000000072500, 0.0000000000000000000, 6.000000000000000900 ) ) ;
#228 = AXIS2_PLACEMENT_3D ( 'NONE', #188, #76, #206 ) ;
#229 = PRODUCT ( 'RPSS06-12', 'RPSS06-12', '', ( #103 ) ) ;
#230 = STYLED_ITEM ( 'NONE', ( #40 ), #249 ) ;
#231 = CIRCLE ( 'NONE', #42, 0.1875000000000000300 ) ;
#232 = LENGTH_MEASURE_WITH_UNIT ( LENGTH_MEASURE( 0.02539999999999999900 ), #162 );
#233 = DIRECTION ( 'NONE',  ( 1.000000000000000000, 0.0000000000000000000, 0.0000000000000000000 ) ) ;
#234 = CIRCLE ( 'NONE', #74, 0.1875000000000000300 ) ;
#235 = APPLICATION_CONTEXT ( 'automotive_design' ) ;
#236 =( GEOMETRIC_REPRESENTATION_CONTEXT ( 3 ) GLOBAL_UNCERTAINTY_ASSIGNED_CONTEXT ( ( #92 ) ) GLOBAL_UNIT_ASSIGNED_CONTEXT ( ( #114, #245, #135 ) ) REPRESENTATION_CONTEXT ( 'NONE', 'WORKASPACE' ) );
#237 =( CONVERSION_BASED_UNIT ( 'INCH', #129 ) LENGTH_UNIT ( ) NAMED_UNIT ( #30 ) );
#238 = DIRECTION ( 'NONE',  ( -0.0000000000000000000, -0.0000000000000000000, 1.000000000000000000 ) ) ;
#239 = ORIENTED_EDGE ( 'NONE', *, *, #222, .T. ) ;
#240 = ADVANCED_FACE ( 'NONE', ( #181 ), #27, .T. ) ;
#241 = CARTESIAN_POINT ( 'NONE',  ( 0.0000000000000000000, 0.0000000000000000000, 5.970000000000007700 ) ) ;
#242 = DIRECTION ( 'NONE',  ( 1.000000000000000000, 0.0000000000000000000, 0.0000000000000000000 ) ) ;
#243 = FILL_AREA_STYLE ('',( #110 ) ) ;
#244 = AXIS2_PLACEMENT_3D ( 'NONE', #200, #186, #70 ) ;
#245 =( NAMED_UNIT ( * ) PLANE_ANGLE_UNIT ( ) SI_UNIT ( $, .RADIAN. ) );
#246 = ORIENTED_EDGE ( 'NONE', *, *, #147, .F. ) ;
#247 = ORIENTED_EDGE ( 'NONE', *, *, #54, .F. ) ;
#248 = MECHANICAL_DESIGN_GEOMETRIC_PRESENTATION_REPRESENTATION (  '', ( #26 ), #236 ) ;
#249 = ADVANCED_BREP_SHAPE_REPRESENTATION ( 'RPSS06-12', ( #21, #155 ), #3 ) ;
ENDSEC;
END-ISO-10303-21;
