ISO-10303-21;
HEADER;
FILE_DESCRIPTION (( 'STEP AP214' ),
    '1' );
FILE_NAME ('RPSS06-24.step',
    '2017-08-09T17:44:53',
    ( '' ),
    ( '' ),
    'SwSTEP 2.0',
    'SolidWorks 2017',
    '' );
FILE_SCHEMA (( 'AUTOMOTIVE_DESIGN' ));
ENDSEC;

DATA;
#1 = CARTESIAN_POINT ( 'NONE',  ( 0.1875000000000000300, 2.296212748401286800E-017, 11.97000000000001000 ) ) ;
#2 = FACE_OUTER_BOUND ( 'NONE', #191, .T. ) ;
#3 = PRODUCT_RELATED_PRODUCT_CATEGORY ( 'part', '', ( #156 ) ) ;
#4 = CARTESIAN_POINT ( 'NONE',  ( 0.0000000000000000000, 0.0000000000000000000, 12.00000000000000200 ) ) ;
#5 = FILL_AREA_STYLE ('',( #109 ) ) ;
#6 = ORIENTED_EDGE ( 'NONE', *, *, #196, .F. ) ;
#7 = ORIENTED_EDGE ( 'NONE', *, *, #62, .T. ) ;
#8 = FACE_OUTER_BOUND ( 'NONE', #141, .T. ) ;
#9 = AXIS2_PLACEMENT_3D ( 'NONE', #140, #52, #185 ) ;
#10 = DIRECTION ( 'NONE',  ( -0.0000000000000000000, -0.0000000000000000000, -1.000000000000000000 ) ) ;
#11 = MANIFOLD_SOLID_BREP ( 'Chamfer1', #53 ) ;
#12 = CARTESIAN_POINT ( 'NONE',  ( 0.1575000000000094100, 1.928818708657196300E-017, 12.00000000000000200 ) ) ;
#13 = LENGTH_MEASURE_WITH_UNIT ( LENGTH_MEASURE( 0.02539999999999999900 ), #167 );
#14 = CARTESIAN_POINT ( 'NONE',  ( 0.0000000000000000000, 0.0000000000000000000, -11.96999999999997800 ) ) ;
#15 = EDGE_CURVE ( 'NONE', #96, #159, #54, .T. ) ;
#16 = VECTOR ( 'NONE', #10, 39.37007874015748100 ) ;
#17 = CARTESIAN_POINT ( 'NONE',  ( -0.1574999999999788200, 2.112515728529054200E-017, -12.00000000000000200 ) ) ;
#18 = AXIS2_PLACEMENT_3D ( 'NONE', #47, #178, #68 ) ;
#19 = CONICAL_SURFACE ( 'NONE', #213, 0.1875000000000000300, 0.7853981633974835800 ) ;
#20 = ORIENTED_EDGE ( 'NONE', *, *, #249, .T. ) ;
#21 = CARTESIAN_POINT ( 'NONE',  ( 0.0000000000000000000, 0.0000000000000000000, -11.96999999999997800 ) ) ;
#22 = DIRECTION ( 'NONE',  ( 1.000000000000000000, 0.0000000000000000000, 0.0000000000000000000 ) ) ;
#23 = SURFACE_STYLE_USAGE ( .BOTH. , #123 ) ;
#24 = COLOUR_RGB ( '',0.7921568627450980000, 0.8196078431372548800, 0.9333333333333333500 ) ;
#25 = EDGE_CURVE ( 'NONE', #84, #121, #149, .T. ) ;
#26 = FACE_OUTER_BOUND ( 'NONE', #113, .T. ) ;
#27 = ADVANCED_FACE ( 'NONE', ( #8 ), #145, .T. ) ;
#28 = ORIENTED_EDGE ( 'NONE', *, *, #180, .T. ) ;
#29 = DIRECTION ( 'NONE',  ( 1.000000000000000000, 0.0000000000000000000, 0.0000000000000000000 ) ) ;
#30 = AXIS2_PLACEMENT_3D ( 'NONE', #14, #135, #29 ) ;
#31 = ORIENTED_EDGE ( 'NONE', *, *, #150, .T. ) ;
#32 = ORIENTED_EDGE ( 'NONE', *, *, #134, .T. ) ;
#33 = EDGE_CURVE ( 'NONE', #159, #46, #103, .T. ) ;
#34 = CARTESIAN_POINT ( 'NONE',  ( 0.0000000000000000000, 0.0000000000000000000, 12.00000000000000200 ) ) ;
#35 = SURFACE_STYLE_USAGE ( .BOTH. , #175 ) ;
#36 = VERTEX_POINT ( 'NONE', #94 ) ;
#37 = DIRECTION ( 'NONE',  ( 1.000000000000000000, 0.0000000000000000000, 0.0000000000000000000 ) ) ;
#38 = CARTESIAN_POINT ( 'NONE',  ( 0.0000000000000000000, 0.0000000000000000000, -12.00000000000000200 ) ) ;
#39 =( CONVERSION_BASED_UNIT ( 'INCH', #157 ) LENGTH_UNIT ( ) NAMED_UNIT ( #131 ) );
#40 = VERTEX_POINT ( 'NONE', #209 ) ;
#41 = SURFACE_STYLE_FILL_AREA ( #5 ) ;
#42 = AXIS2_PLACEMENT_3D ( 'NONE', #218, #181, #155 ) ;
#43 = CARTESIAN_POINT ( 'NONE',  ( 0.0000000000000000000, 0.0000000000000000000, 11.97000000000001000 ) ) ;
#44 = ORIENTED_EDGE ( 'NONE', *, *, #208, .T. ) ;
#45 = ADVANCED_FACE ( 'NONE', ( #49 ), #136, .T. ) ;
#46 = VERTEX_POINT ( 'NONE', #1 ) ;
#47 = CARTESIAN_POINT ( 'NONE',  ( 0.0000000000000000000, 0.0000000000000000000, 12.00000000000000200 ) ) ;
#48 = DIRECTION ( 'NONE',  ( -0.0000000000000000000, -0.0000000000000000000, -1.000000000000000000 ) ) ;
#49 = FACE_OUTER_BOUND ( 'NONE', #83, .T. ) ;
#50 = EDGE_CURVE ( 'NONE', #121, #84, #248, .T. ) ;
#51 = DIRECTION ( 'NONE',  ( 1.000000000000000000, 0.0000000000000000000, 0.0000000000000000000 ) ) ;
#52 = DIRECTION ( 'NONE',  ( 0.0000000000000000000, 0.0000000000000000000, 1.000000000000000000 ) ) ;
#53 = CLOSED_SHELL ( 'NONE', ( #198, #114, #45, #67, #27, #130, #237, #217 ) ) ;
#54 = CIRCLE ( 'NONE', #115, 0.1575000000000094100 ) ;
#55 = CARTESIAN_POINT ( 'NONE',  ( 0.0000000000000000000, 0.0000000000000000000, -12.00000000000000200 ) ) ;
#56 = AXIS2_PLACEMENT_3D ( 'NONE', #202, #172, #63 ) ;
#57 = CARTESIAN_POINT ( 'NONE',  ( -0.1575000000000094100, 0.0000000000000000000, 12.00000000000000200 ) ) ;
#58 =( CONVERSION_BASED_UNIT ( 'INCH', #13 ) LENGTH_UNIT ( ) NAMED_UNIT ( #177 ) );
#59 =( CONVERSION_BASED_UNIT ( 'INCH', #235 ) LENGTH_UNIT ( ) NAMED_UNIT ( #101 ) );
#60 = DIRECTION ( 'NONE',  ( 1.000000000000000000, 0.0000000000000000000, 0.0000000000000000000 ) ) ;
#61 = ORIENTED_EDGE ( 'NONE', *, *, #208, .F. ) ;
#62 = EDGE_CURVE ( 'NONE', #96, #36, #142, .T. ) ;
#63 = DIRECTION ( 'NONE',  ( -1.000000000000000000, 0.0000000000000000000, 0.0000000000000000000 ) ) ;
#64 = DIRECTION ( 'NONE',  ( 1.000000000000000000, 0.0000000000000000000, 0.0000000000000000000 ) ) ;
#65 = VECTOR ( 'NONE', #241, 39.37007874015748100 ) ;
#66 = PRESENTATION_STYLE_ASSIGNMENT (( #35 ) ) ;
#67 = ADVANCED_FACE ( 'NONE', ( #97 ), #221, .T. ) ;
#68 = DIRECTION ( 'NONE',  ( 1.000000000000000000, 0.0000000000000000000, 0.0000000000000000000 ) ) ;
#69 = CARTESIAN_POINT ( 'NONE',  ( 0.1875000000000000300, 2.296212748401286800E-017, 12.00000000000000200 ) ) ;
#70 = AXIS2_PLACEMENT_3D ( 'NONE', #43, #174, #64 ) ;
#71 = CIRCLE ( 'NONE', #243, 0.1875000000000000300 ) ;
#72 = ORIENTED_EDGE ( 'NONE', *, *, #134, .F. ) ;
#73 = CARTESIAN_POINT ( 'NONE',  ( 0.1574999999999788200, 0.0000000000000000000, -12.00000000000000200 ) ) ;
#74 = APPLICATION_CONTEXT ( 'automotive_design' ) ;
#75 = STYLED_ITEM ( 'NONE', ( #66 ), #11 ) ;
#76 = DIRECTION ( 'NONE',  ( 1.000000000000000000, 0.0000000000000000000, 0.0000000000000000000 ) ) ;
#77 = LINE ( 'NONE', #225, #158 ) ;
#78 =( NAMED_UNIT ( * ) SI_UNIT ( $, .STERADIAN. ) SOLID_ANGLE_UNIT ( ) );
#79 =( NAMED_UNIT ( * ) SI_UNIT ( $, .STERADIAN. ) SOLID_ANGLE_UNIT ( ) );
#80 = EDGE_LOOP ( 'NONE', ( #61, #232, #240, #20 ) ) ;
#81 = DIRECTION ( 'NONE',  ( 1.000000000000000000, 0.0000000000000000000, -0.0000000000000000000 ) ) ;
#82 = AXIS2_PLACEMENT_3D ( 'NONE', #152, #128, #214 ) ;
#83 = EDGE_LOOP ( 'NONE', ( #32, #44, #28, #186 ) ) ;
#84 = VERTEX_POINT ( 'NONE', #73 ) ;
#85 = DIRECTION ( 'NONE',  ( -0.7071067811865724400, 8.659560562355237300E-017, 0.7071067811865224800 ) ) ;
#86 = PRESENTATION_LAYER_ASSIGNMENT (  '', '', ( #75 ) ) ;
#87 = ORIENTED_EDGE ( 'NONE', *, *, #161, .F. ) ;
#88 = CARTESIAN_POINT ( 'NONE',  ( 0.0000000000000000000, 0.0000000000000000000, -11.96999999999998100 ) ) ;
#89 = ORIENTED_EDGE ( 'NONE', *, *, #150, .F. ) ;
#90 = CARTESIAN_POINT ( 'NONE',  ( 0.0000000000000000000, 0.0000000000000000000, 12.00000000000000200 ) ) ;
#91 = UNCERTAINTY_MEASURE_WITH_UNIT (LENGTH_MEASURE( 1.000000000000000100E-005 ), #39, 'distance_accuracy_value', 'NONE');
#92 = DIRECTION ( 'NONE',  ( 0.0000000000000000000, 0.0000000000000000000, -1.000000000000000000 ) ) ;
#93 = AXIS2_PLACEMENT_3D ( 'NONE', #21, #146, #37 ) ;
#94 = CARTESIAN_POINT ( 'NONE',  ( -0.1875000000000000300, 0.0000000000000000000, 11.97000000000001000 ) ) ;
#95 = APPLICATION_PROTOCOL_DEFINITION ( 'draft international standard', 'automotive_design', 1998, #110 ) ;
#96 = VERTEX_POINT ( 'NONE', #57 ) ;
#97 = FACE_OUTER_BOUND ( 'NONE', #80, .T. ) ;
#98 = MECHANICAL_DESIGN_GEOMETRIC_PRESENTATION_REPRESENTATION (  '', ( #75 ), #105 ) ;
#99 = CIRCLE ( 'NONE', #70, 0.1875000000000000300 ) ;
#100 = FILL_AREA_STYLE_COLOUR ( '', #102 ) ;
#101 = DIMENSIONAL_EXPONENTS ( 1.000000000000000000, 0.0000000000000000000, 0.0000000000000000000, 0.0000000000000000000, 0.0000000000000000000, 0.0000000000000000000, 0.0000000000000000000 ) ;
#102 = COLOUR_RGB ( '',0.7921568627450980000, 0.8196078431372548800, 0.9333333333333333500 ) ;
#103 = LINE ( 'NONE', #12, #201 ) ;
#104 =( GEOMETRIC_REPRESENTATION_CONTEXT ( 3 ) GLOBAL_UNCERTAINTY_ASSIGNED_CONTEXT ( ( #227 ) ) GLOBAL_UNIT_ASSIGNED_CONTEXT ( ( #59, #193, #79 ) ) REPRESENTATION_CONTEXT ( 'NONE', 'WORKASPACE' ) );
#105 =( GEOMETRIC_REPRESENTATION_CONTEXT ( 3 ) GLOBAL_UNCERTAINTY_ASSIGNED_CONTEXT ( ( #210 ) ) GLOBAL_UNIT_ASSIGNED_CONTEXT ( ( #58, #192, #78 ) ) REPRESENTATION_CONTEXT ( 'NONE', 'WORKASPACE' ) );
#106 = LINE ( 'NONE', #200, #65 ) ;
#107 = PRODUCT_DEFINITION_CONTEXT ( 'detailed design', #74, 'design' ) ;
#108 = SURFACE_STYLE_FILL_AREA ( #153 ) ;
#109 = FILL_AREA_STYLE_COLOUR ( '', #24 ) ;
#110 = APPLICATION_CONTEXT ( 'automotive_design' ) ;
#111 = CARTESIAN_POINT ( 'NONE',  ( -0.1875000000000000300, 0.0000000000000000000, 12.00000000000000200 ) ) ;
#112 = FACE_OUTER_BOUND ( 'NONE', #229, .T. ) ;
#113 = EDGE_LOOP ( 'NONE', ( #246, #222, #129, #6 ) ) ;
#114 = ADVANCED_FACE ( 'NONE', ( #26 ), #19, .T. ) ;
#115 = AXIS2_PLACEMENT_3D ( 'NONE', #4, #122, #22 ) ;
#116 = FACE_OUTER_BOUND ( 'NONE', #132, .T. ) ;
#117 = VERTEX_POINT ( 'NONE', #118 ) ;
#118 = CARTESIAN_POINT ( 'NONE',  ( 0.1875000000000000300, 2.296212748401286800E-017, -11.96999999999997800 ) ) ;
#119 = DIRECTION ( 'NONE',  ( -0.7071067811865468000, 0.0000000000000000000, -0.7071067811865483500 ) ) ;
#120 = STYLED_ITEM ( 'NONE', ( #220 ), #125 ) ;
#121 = VERTEX_POINT ( 'NONE', #17 ) ;
#122 = DIRECTION ( 'NONE',  ( 0.0000000000000000000, 0.0000000000000000000, 1.000000000000000000 ) ) ;
#123 = SURFACE_SIDE_STYLE ('',( #41 ) ) ;
#124 = ORIENTED_EDGE ( 'NONE', *, *, #15, .F. ) ;
#125 = ADVANCED_BREP_SHAPE_REPRESENTATION ( 'RPSS06-24', ( #11, #211 ), #104 ) ;
#126 = AXIS2_PLACEMENT_3D ( 'NONE', #38, #169, #60 ) ;
#127 = CONICAL_SURFACE ( 'NONE', #82, 0.1875000000000000300, 0.7853981633974835800 ) ;
#128 = DIRECTION ( 'NONE',  ( -0.0000000000000000000, -0.0000000000000000000, 1.000000000000000000 ) ) ;
#129 = ORIENTED_EDGE ( 'NONE', *, *, #180, .F. ) ;
#130 = ADVANCED_FACE ( 'NONE', ( #116 ), #245, .F. ) ;
#131 = DIMENSIONAL_EXPONENTS ( 1.000000000000000000, 0.0000000000000000000, 0.0000000000000000000, 0.0000000000000000000, 0.0000000000000000000, 0.0000000000000000000, 0.0000000000000000000 ) ;
#132 = EDGE_LOOP ( 'NONE', ( #195, #165 ) ) ;
#133 = DIRECTION ( 'NONE',  ( 1.000000000000000000, 0.0000000000000000000, 0.0000000000000000000 ) ) ;
#134 = EDGE_CURVE ( 'NONE', #36, #46, #71, .T. ) ;
#135 = DIRECTION ( 'NONE',  ( -0.0000000000000000000, -0.0000000000000000000, 1.000000000000000000 ) ) ;
#136 = CYLINDRICAL_SURFACE ( 'NONE', #204, 0.1875000000000000300 ) ;
#137 = CONICAL_SURFACE ( 'NONE', #56, 0.1575000000000094100, 0.7853981633974471700 ) ;
#138 = PRESENTATION_LAYER_ASSIGNMENT (  '', '', ( #120 ) ) ;
#139 =( NAMED_UNIT ( * ) SI_UNIT ( $, .STERADIAN. ) SOLID_ANGLE_UNIT ( ) );
#140 = CARTESIAN_POINT ( 'NONE',  ( 0.0000000000000000000, 0.0000000000000000000, -12.00000000000000200 ) ) ;
#141 = EDGE_LOOP ( 'NONE', ( #182, #31 ) ) ;
#142 = LINE ( 'NONE', #163, #231 ) ;
#143 = CONICAL_SURFACE ( 'NONE', #42, 0.1575000000000094100, 0.7853981633974471700 ) ;
#144 = DIRECTION ( 'NONE',  ( -1.000000000000000000, 0.0000000000000000000, 0.0000000000000000000 ) ) ;
#145 = PLANE ( 'NONE',  #171 ) ;
#146 = DIRECTION ( 'NONE',  ( -0.0000000000000000000, -0.0000000000000000000, 1.000000000000000000 ) ) ;
#147 = CARTESIAN_POINT ( 'NONE',  ( 0.0000000000000000000, 0.0000000000000000000, 12.00000000000000200 ) ) ;
#148 =( LENGTH_UNIT ( ) NAMED_UNIT ( * ) SI_UNIT ( $, .METRE. ) );
#149 = CIRCLE ( 'NONE', #126, 0.1574999999999788200 ) ;
#150 = EDGE_CURVE ( 'NONE', #159, #96, #215, .T. ) ;
#151 = MECHANICAL_DESIGN_GEOMETRIC_PRESENTATION_REPRESENTATION (  '', ( #120 ), #166 ) ;
#152 = CARTESIAN_POINT ( 'NONE',  ( 0.0000000000000000000, 0.0000000000000000000, -11.96999999999998100 ) ) ;
#153 = FILL_AREA_STYLE ('',( #100 ) ) ;
#154 = LINE ( 'NONE', #69, #212 ) ;
#155 = DIRECTION ( 'NONE',  ( -1.000000000000000000, 0.0000000000000000000, 0.0000000000000000000 ) ) ;
#156 = PRODUCT ( 'RPSS06-24', 'RPSS06-24', '', ( #184 ) ) ;
#157 = LENGTH_MEASURE_WITH_UNIT ( LENGTH_MEASURE( 0.02539999999999999900 ), #148 );
#158 = VECTOR ( 'NONE', #85, 39.37007874015748100 ) ;
#159 = VERTEX_POINT ( 'NONE', #207 ) ;
#160 = DIRECTION ( 'NONE',  ( 0.0000000000000000000, 0.0000000000000000000, 1.000000000000000000 ) ) ;
#161 = EDGE_CURVE ( 'NONE', #121, #40, #77, .T. ) ;
#162 = DIRECTION ( 'NONE',  ( -0.0000000000000000000, -0.0000000000000000000, -1.000000000000000000 ) ) ;
#163 = CARTESIAN_POINT ( 'NONE',  ( -0.1575000000000094100, 0.0000000000000000000, 12.00000000000000200 ) ) ;
#164 = LINE ( 'NONE', #111, #16 ) ;
#165 = ORIENTED_EDGE ( 'NONE', *, *, #50, .T. ) ;
#166 =( GEOMETRIC_REPRESENTATION_CONTEXT ( 3 ) GLOBAL_UNCERTAINTY_ASSIGNED_CONTEXT ( ( #91 ) ) GLOBAL_UNIT_ASSIGNED_CONTEXT ( ( #39, #170, #139 ) ) REPRESENTATION_CONTEXT ( 'NONE', 'WORKASPACE' ) );
#167 =( LENGTH_UNIT ( ) NAMED_UNIT ( * ) SI_UNIT ( $, .METRE. ) );
#168 =( LENGTH_UNIT ( ) NAMED_UNIT ( * ) SI_UNIT ( $, .METRE. ) );
#169 = DIRECTION ( 'NONE',  ( -0.0000000000000000000, -0.0000000000000000000, -1.000000000000000000 ) ) ;
#170 =( NAMED_UNIT ( * ) PLANE_ANGLE_UNIT ( ) SI_UNIT ( $, .RADIAN. ) );
#171 = AXIS2_PLACEMENT_3D ( 'NONE', #147, #194, #81 ) ;
#172 = DIRECTION ( 'NONE',  ( 0.0000000000000000000, 0.0000000000000000000, -1.000000000000000000 ) ) ;
#173 = CIRCLE ( 'NONE', #30, 0.1875000000000000300 ) ;
#174 = DIRECTION ( 'NONE',  ( 0.0000000000000000000, 0.0000000000000000000, -1.000000000000000000 ) ) ;
#175 = SURFACE_SIDE_STYLE ('',( #108 ) ) ;
#176 = ORIENTED_EDGE ( 'NONE', *, *, #234, .F. ) ;
#177 = DIMENSIONAL_EXPONENTS ( 1.000000000000000000, 0.0000000000000000000, 0.0000000000000000000, 0.0000000000000000000, 0.0000000000000000000, 0.0000000000000000000, 0.0000000000000000000 ) ;
#178 = DIRECTION ( 'NONE',  ( 0.0000000000000000000, 0.0000000000000000000, 1.000000000000000000 ) ) ;
#179 = ORIENTED_EDGE ( 'NONE', *, *, #33, .T. ) ;
#180 = EDGE_CURVE ( 'NONE', #117, #40, #173, .T. ) ;
#181 = DIRECTION ( 'NONE',  ( 0.0000000000000000000, 0.0000000000000000000, -1.000000000000000000 ) ) ;
#182 = ORIENTED_EDGE ( 'NONE', *, *, #15, .T. ) ;
#183 = DIRECTION ( 'NONE',  ( -0.0000000000000000000, -0.0000000000000000000, 1.000000000000000000 ) ) ;
#184 = PRODUCT_CONTEXT ( 'NONE', #110, 'mechanical' ) ;
#185 = DIRECTION ( 'NONE',  ( 1.000000000000000000, 0.0000000000000000000, -0.0000000000000000000 ) ) ;
#186 = ORIENTED_EDGE ( 'NONE', *, *, #219, .F. ) ;
#187 = DIRECTION ( 'NONE',  ( 0.7071067811865468000, 8.659560562354921800E-017, -0.7071067811865483500 ) ) ;
#188 = DIRECTION ( 'NONE',  ( -0.0000000000000000000, -0.0000000000000000000, -1.000000000000000000 ) ) ;
#189 = AXIS2_PLACEMENT_3D ( 'NONE', #55, #188, #76 ) ;
#190 = PRODUCT_DEFINITION_SHAPE ( 'NONE', 'NONE',  #223 ) ;
#191 = EDGE_LOOP ( 'NONE', ( #87, #199, #233, #244 ) ) ;
#192 =( NAMED_UNIT ( * ) PLANE_ANGLE_UNIT ( ) SI_UNIT ( $, .RADIAN. ) );
#193 =( NAMED_UNIT ( * ) PLANE_ANGLE_UNIT ( ) SI_UNIT ( $, .RADIAN. ) );
#194 = DIRECTION ( 'NONE',  ( 0.0000000000000000000, 0.0000000000000000000, 1.000000000000000000 ) ) ;
#195 = ORIENTED_EDGE ( 'NONE', *, *, #25, .T. ) ;
#196 = EDGE_CURVE ( 'NONE', #84, #117, #106, .T. ) ;
#197 = CARTESIAN_POINT ( 'NONE',  ( 0.0000000000000000000, 0.0000000000000000000, 0.0000000000000000000 ) ) ;
#198 = ADVANCED_FACE ( 'NONE', ( #112 ), #143, .T. ) ;
#199 = ORIENTED_EDGE ( 'NONE', *, *, #25, .F. ) ;
#200 = CARTESIAN_POINT ( 'NONE',  ( 0.1875000000000000300, 0.0000000000000000000, -11.96999999999998100 ) ) ;
#201 = VECTOR ( 'NONE', #187, 39.37007874015748100 ) ;
#202 = CARTESIAN_POINT ( 'NONE',  ( 0.0000000000000000000, 0.0000000000000000000, 12.00000000000000200 ) ) ;
#203 = FACE_OUTER_BOUND ( 'NONE', #216, .T. ) ;
#204 = AXIS2_PLACEMENT_3D ( 'NONE', #90, #162, #226 ) ;
#205 = DIRECTION ( 'NONE',  ( 1.000000000000000000, 0.0000000000000000000, 0.0000000000000000000 ) ) ;
#206 = APPLICATION_PROTOCOL_DEFINITION ( 'draft international standard', 'automotive_design', 1998, #74 ) ;
#207 = CARTESIAN_POINT ( 'NONE',  ( 0.1575000000000094100, 2.112515728529241500E-017, 12.00000000000000200 ) ) ;
#208 = EDGE_CURVE ( 'NONE', #46, #117, #154, .T. ) ;
#209 = CARTESIAN_POINT ( 'NONE',  ( -0.1875000000000000300, 0.0000000000000000000, -11.96999999999997800 ) ) ;
#210 = UNCERTAINTY_MEASURE_WITH_UNIT (LENGTH_MEASURE( 1.000000000000000100E-005 ), #58, 'distance_accuracy_value', 'NONE');
#211 = AXIS2_PLACEMENT_3D ( 'NONE', #197, #160, #51 ) ;
#212 = VECTOR ( 'NONE', #48, 39.37007874015748100 ) ;
#213 = AXIS2_PLACEMENT_3D ( 'NONE', #88, #183, #205 ) ;
#214 = DIRECTION ( 'NONE',  ( 1.000000000000000000, 0.0000000000000000000, 0.0000000000000000000 ) ) ;
#215 = CIRCLE ( 'NONE', #18, 0.1575000000000094100 ) ;
#216 = EDGE_LOOP ( 'NONE', ( #224, #124, #7, #176 ) ) ;
#217 = ADVANCED_FACE ( 'NONE', ( #203 ), #137, .T. ) ;
#218 = CARTESIAN_POINT ( 'NONE',  ( 0.0000000000000000000, 0.0000000000000000000, 12.00000000000000200 ) ) ;
#219 = EDGE_CURVE ( 'NONE', #36, #40, #164, .T. ) ;
#220 = PRESENTATION_STYLE_ASSIGNMENT (( #23 ) ) ;
#221 = CYLINDRICAL_SURFACE ( 'NONE', #230, 0.1875000000000000300 ) ;
#222 = ORIENTED_EDGE ( 'NONE', *, *, #161, .T. ) ;
#223 = PRODUCT_DEFINITION ( 'UNKNOWN', '', #238, #107 ) ;
#224 = ORIENTED_EDGE ( 'NONE', *, *, #33, .F. ) ;
#225 = CARTESIAN_POINT ( 'NONE',  ( -0.1875000000000000300, 2.296212748401286800E-017, -11.96999999999998100 ) ) ;
#226 = DIRECTION ( 'NONE',  ( -1.000000000000000000, 0.0000000000000000000, 0.0000000000000000000 ) ) ;
#227 = UNCERTAINTY_MEASURE_WITH_UNIT (LENGTH_MEASURE( 1.000000000000000100E-005 ), #59, 'distance_accuracy_value', 'NONE');
#228 = DIRECTION ( 'NONE',  ( -0.0000000000000000000, -0.0000000000000000000, -1.000000000000000000 ) ) ;
#229 = EDGE_LOOP ( 'NONE', ( #89, #179, #72, #239 ) ) ;
#230 = AXIS2_PLACEMENT_3D ( 'NONE', #34, #228, #144 ) ;
#231 = VECTOR ( 'NONE', #119, 39.37007874015748100 ) ;
#232 = ORIENTED_EDGE ( 'NONE', *, *, #234, .T. ) ;
#233 = ORIENTED_EDGE ( 'NONE', *, *, #196, .T. ) ;
#234 = EDGE_CURVE ( 'NONE', #46, #36, #99, .T. ) ;
#235 = LENGTH_MEASURE_WITH_UNIT ( LENGTH_MEASURE( 0.02539999999999999900 ), #168 );
#236 = SHAPE_DEFINITION_REPRESENTATION ( #190, #125 ) ;
#237 = ADVANCED_FACE ( 'NONE', ( #2 ), #127, .T. ) ;
#238 = PRODUCT_DEFINITION_FORMATION_WITH_SPECIFIED_SOURCE ( 'ANY', '', #156, .NOT_KNOWN. ) ;
#239 = ORIENTED_EDGE ( 'NONE', *, *, #62, .F. ) ;
#240 = ORIENTED_EDGE ( 'NONE', *, *, #219, .T. ) ;
#241 = DIRECTION ( 'NONE',  ( 0.7071067811865724400, 0.0000000000000000000, 0.7071067811865224800 ) ) ;
#242 = CIRCLE ( 'NONE', #93, 0.1875000000000000300 ) ;
#243 = AXIS2_PLACEMENT_3D ( 'NONE', #247, #92, #133 ) ;
#244 = ORIENTED_EDGE ( 'NONE', *, *, #249, .F. ) ;
#245 = PLANE ( 'NONE',  #9 ) ;
#246 = ORIENTED_EDGE ( 'NONE', *, *, #50, .F. ) ;
#247 = CARTESIAN_POINT ( 'NONE',  ( 0.0000000000000000000, 0.0000000000000000000, 11.97000000000001000 ) ) ;
#248 = CIRCLE ( 'NONE', #189, 0.1574999999999788200 ) ;
#249 = EDGE_CURVE ( 'NONE', #40, #117, #242, .T. ) ;
ENDSEC;
END-ISO-10303-21;
