ISO-10303-21;
HEADER;
FILE_DESCRIPTION (( 'STEP AP214' ),
    '1' );
FILE_NAME ('RPSS06-36.step',
    '2017-08-09T17:45:09',
    ( '' ),
    ( '' ),
    'SwSTEP 2.0',
    'SolidWorks 2017',
    '' );
FILE_SCHEMA (( 'AUTOMOTIVE_DESIGN' ));
ENDSEC;

DATA;
#1 = ORIENTED_EDGE ( 'NONE', *, *, #138, .T. ) ;
#2 = FILL_AREA_STYLE ('',( #161 ) ) ;
#3 = DIRECTION ( 'NONE',  ( 0.0000000000000000000, 0.0000000000000000000, 1.000000000000000000 ) ) ;
#4 = DIRECTION ( 'NONE',  ( -1.000000000000000000, 0.0000000000000000000, 0.0000000000000000000 ) ) ;
#5 =( GEOMETRIC_REPRESENTATION_CONTEXT ( 3 ) GLOBAL_UNCERTAINTY_ASSIGNED_CONTEXT ( ( #114 ) ) GLOBAL_UNIT_ASSIGNED_CONTEXT ( ( #43, #183, #64 ) ) REPRESENTATION_CONTEXT ( 'NONE', 'WORKASPACE' ) );
#6 = FACE_OUTER_BOUND ( 'NONE', #63, .T. ) ;
#7 = FILL_AREA_STYLE_COLOUR ( '', #34 ) ;
#8 = CARTESIAN_POINT ( 'NONE',  ( 0.0000000000000000000, 0.0000000000000000000, 18.00000000000000000 ) ) ;
#9 = SURFACE_STYLE_USAGE ( .BOTH. , #134 ) ;
#10 = ADVANCED_FACE ( 'NONE', ( #167 ), #122, .T. ) ;
#11 = CIRCLE ( 'NONE', #156, 0.1875000000000000300 ) ;
#12 = ORIENTED_EDGE ( 'NONE', *, *, #54, .T. ) ;
#13 = EDGE_CURVE ( 'NONE', #203, #123, #62, .T. ) ;
#14 = LINE ( 'NONE', #166, #246 ) ;
#15 = VECTOR ( 'NONE', #60, 39.37007874015748100 ) ;
#16 = ORIENTED_EDGE ( 'NONE', *, *, #35, .F. ) ;
#17 = CIRCLE ( 'NONE', #133, 0.1875000000000000300 ) ;
#18 = AXIS2_PLACEMENT_3D ( 'NONE', #131, #3, #144 ) ;
#19 = CIRCLE ( 'NONE', #204, 0.1875000000000000300 ) ;
#20 = ORIENTED_EDGE ( 'NONE', *, *, #23, .F. ) ;
#21 = DIRECTION ( 'NONE',  ( 1.000000000000000000, 0.0000000000000000000, 0.0000000000000000000 ) ) ;
#22 = SURFACE_STYLE_USAGE ( .BOTH. , #142 ) ;
#23 = EDGE_CURVE ( 'NONE', #129, #123, #11, .T. ) ;
#24 = CARTESIAN_POINT ( 'NONE',  ( -0.1574999999999941400, 0.0000000000000000000, 18.00000000000000000 ) ) ;
#25 = CARTESIAN_POINT ( 'NONE',  ( 0.0000000000000000000, 0.0000000000000000000, -18.00000000000000000 ) ) ;
#26 = DIRECTION ( 'NONE',  ( 1.000000000000000000, 0.0000000000000000000, 0.0000000000000000000 ) ) ;
#27 = AXIS2_PLACEMENT_3D ( 'NONE', #117, #74, #201 ) ;
#28 = CONICAL_SURFACE ( 'NONE', #146, 0.1875000000000000300, 0.7853981633975194400 ) ;
#29 =( CONVERSION_BASED_UNIT ( 'INCH', #152 ) LENGTH_UNIT ( ) NAMED_UNIT ( #190 ) );
#30 = EDGE_LOOP ( 'NONE', ( #153, #12, #244, #44 ) ) ;
#31 = CLOSED_SHELL ( 'NONE', ( #230, #77, #150, #10, #160, #240, #96, #173 ) ) ;
#32 = AXIS2_PLACEMENT_3D ( 'NONE', #111, #234, #132 ) ;
#33 = ORIENTED_EDGE ( 'NONE', *, *, #233, .F. ) ;
#34 = COLOUR_RGB ( '',0.7921568627450980000, 0.8196078431372548800, 0.9333333333333333500 ) ;
#35 = EDGE_CURVE ( 'NONE', #81, #129, #174, .T. ) ;
#36 = DIRECTION ( 'NONE',  ( -0.0000000000000000000, -0.0000000000000000000, -1.000000000000000000 ) ) ;
#37 = EDGE_LOOP ( 'NONE', ( #87, #105, #235, #175 ) ) ;
#38 = PRODUCT_DEFINITION ( 'UNKNOWN', '', #56, #212 ) ;
#39 = ADVANCED_BREP_SHAPE_REPRESENTATION ( 'RPSS06-36', ( #102, #27 ), #179 ) ;
#40 = DIRECTION ( 'NONE',  ( -0.0000000000000000000, -0.0000000000000000000, 1.000000000000000000 ) ) ;
#41 = PRODUCT_DEFINITION_SHAPE ( 'NONE', 'NONE',  #38 ) ;
#42 = CARTESIAN_POINT ( 'NONE',  ( 0.1574999999999941400, 2.112515728529148800E-017, 18.00000000000000000 ) ) ;
#43 =( CONVERSION_BASED_UNIT ( 'INCH', #237 ) LENGTH_UNIT ( ) NAMED_UNIT ( #202 ) );
#44 = ORIENTED_EDGE ( 'NONE', *, *, #67, .F. ) ;
#45 = CARTESIAN_POINT ( 'NONE',  ( 0.0000000000000000000, 0.0000000000000000000, 18.00000000000000000 ) ) ;
#46 = ORIENTED_EDGE ( 'NONE', *, *, #35, .T. ) ;
#47 = PLANE ( 'NONE',  #92 ) ;
#48 = CARTESIAN_POINT ( 'NONE',  ( 0.0000000000000000000, 0.0000000000000000000, -18.00000000000000000 ) ) ;
#49 = AXIS2_PLACEMENT_3D ( 'NONE', #68, #90, #4 ) ;
#50 = DIRECTION ( 'NONE',  ( 0.0000000000000000000, 0.0000000000000000000, -1.000000000000000000 ) ) ;
#51 =( CONVERSION_BASED_UNIT ( 'INCH', #83 ) LENGTH_UNIT ( ) NAMED_UNIT ( #222 ) );
#52 =( NAMED_UNIT ( * ) SI_UNIT ( $, .STERADIAN. ) SOLID_ANGLE_UNIT ( ) );
#53 = EDGE_LOOP ( 'NONE', ( #207, #241 ) ) ;
#54 = EDGE_CURVE ( 'NONE', #101, #129, #213, .T. ) ;
#55 = CIRCLE ( 'NONE', #32, 0.1575000000000028900 ) ;
#56 = PRODUCT_DEFINITION_FORMATION_WITH_SPECIFIED_SOURCE ( 'ANY', '', #182, .NOT_KNOWN. ) ;
#57 = ORIENTED_EDGE ( 'NONE', *, *, #208, .F. ) ;
#58 = ORIENTED_EDGE ( 'NONE', *, *, #223, .F. ) ;
#59 = CYLINDRICAL_SURFACE ( 'NONE', #79, 0.1875000000000000300 ) ;
#60 = DIRECTION ( 'NONE',  ( 0.7071067811865978700, 0.0000000000000000000, 0.7071067811864972800 ) ) ;
#61 = DIRECTION ( 'NONE',  ( -0.0000000000000000000, -0.0000000000000000000, 1.000000000000000000 ) ) ;
#62 = LINE ( 'NONE', #228, #206 ) ;
#63 = EDGE_LOOP ( 'NONE', ( #214, #100, #33, #58 ) ) ;
#64 =( NAMED_UNIT ( * ) SI_UNIT ( $, .STERADIAN. ) SOLID_ANGLE_UNIT ( ) );
#65 = ORIENTED_EDGE ( 'NONE', *, *, #99, .F. ) ;
#66 = DIRECTION ( 'NONE',  ( -0.0000000000000000000, -0.0000000000000000000, -1.000000000000000000 ) ) ;
#67 = EDGE_CURVE ( 'NONE', #120, #123, #75, .T. ) ;
#68 = CARTESIAN_POINT ( 'NONE',  ( 0.0000000000000000000, 0.0000000000000000000, 18.00000000000000000 ) ) ;
#69 = CONICAL_SURFACE ( 'NONE', #49, 0.1574999999999941400, 0.7853981633975194400 ) ;
#70 = DIRECTION ( 'NONE',  ( 1.000000000000000000, 0.0000000000000000000, 0.0000000000000000000 ) ) ;
#71 = DIRECTION ( 'NONE',  ( 0.0000000000000000000, 0.0000000000000000000, 1.000000000000000000 ) ) ;
#72 =( NAMED_UNIT ( * ) SI_UNIT ( $, .STERADIAN. ) SOLID_ANGLE_UNIT ( ) );
#73 = PRODUCT_RELATED_PRODUCT_CATEGORY ( 'part', '', ( #182 ) ) ;
#74 = DIRECTION ( 'NONE',  ( 0.0000000000000000000, 0.0000000000000000000, 1.000000000000000000 ) ) ;
#75 = LINE ( 'NONE', #248, #219 ) ;
#76 = ORIENTED_EDGE ( 'NONE', *, *, #13, .F. ) ;
#77 = ADVANCED_FACE ( 'NONE', ( #162 ), #28, .T. ) ;
#78 = CONICAL_SURFACE ( 'NONE', #121, 0.1574999999999941400, 0.7853981633975194400 ) ;
#79 = AXIS2_PLACEMENT_3D ( 'NONE', #45, #66, #216 ) ;
#80 = FACE_OUTER_BOUND ( 'NONE', #53, .T. ) ;
#81 = VERTEX_POINT ( 'NONE', #194 ) ;
#82 = EDGE_CURVE ( 'NONE', #101, #120, #177, .T. ) ;
#83 = LENGTH_MEASURE_WITH_UNIT ( LENGTH_MEASURE( 0.02539999999999999900 ), #171 );
#84 = DIRECTION ( 'NONE',  ( -0.0000000000000000000, -0.0000000000000000000, -1.000000000000000000 ) ) ;
#85 = DIRECTION ( 'NONE',  ( -0.0000000000000000000, -0.0000000000000000000, 1.000000000000000000 ) ) ;
#86 = SURFACE_STYLE_FILL_AREA ( #2 ) ;
#87 = ORIENTED_EDGE ( 'NONE', *, *, #54, .F. ) ;
#88 = CARTESIAN_POINT ( 'NONE',  ( 0.1875000000000000300, 2.296212748401287700E-017, 17.96999999999999900 ) ) ;
#89 = CARTESIAN_POINT ( 'NONE',  ( -0.1875000000000000300, 0.0000000000000000000, 17.96999999999999900 ) ) ;
#90 = DIRECTION ( 'NONE',  ( 0.0000000000000000000, 0.0000000000000000000, -1.000000000000000000 ) ) ;
#91 = DIRECTION ( 'NONE',  ( 0.0000000000000000000, 0.0000000000000000000, -1.000000000000000000 ) ) ;
#92 = AXIS2_PLACEMENT_3D ( 'NONE', #145, #196, #184 ) ;
#93 = APPLICATION_PROTOCOL_DEFINITION ( 'draft international standard', 'automotive_design', 1998, #118 ) ;
#94 = UNCERTAINTY_MEASURE_WITH_UNIT (LENGTH_MEASURE( 1.000000000000000100E-005 ), #51, 'distance_accuracy_value', 'NONE');
#95 = PRODUCT_CONTEXT ( 'NONE', #118, 'mechanical' ) ;
#96 = ADVANCED_FACE ( 'NONE', ( #135 ), #189, .T. ) ;
#97 = PRESENTATION_STYLE_ASSIGNMENT (( #9 ) ) ;
#98 = VERTEX_POINT ( 'NONE', #42 ) ;
#99 = EDGE_CURVE ( 'NONE', #123, #129, #19, .T. ) ;
#100 = ORIENTED_EDGE ( 'NONE', *, *, #124, .T. ) ;
#101 = VERTEX_POINT ( 'NONE', #88 ) ;
#102 = MANIFOLD_SOLID_BREP ( 'Chamfer1', #31 ) ;
#103 = AXIS2_PLACEMENT_3D ( 'NONE', #48, #186, #70 ) ;
#104 = EDGE_LOOP ( 'NONE', ( #1, #109 ) ) ;
#105 = ORIENTED_EDGE ( 'NONE', *, *, #82, .T. ) ;
#106 = CARTESIAN_POINT ( 'NONE',  ( 0.1875000000000000300, 2.296212748401287700E-017, 18.00000000000000000 ) ) ;
#107 = CARTESIAN_POINT ( 'NONE',  ( 0.0000000000000000000, 0.0000000000000000000, -17.97000000000000600 ) ) ;
#108 = CARTESIAN_POINT ( 'NONE',  ( 0.0000000000000000000, 0.0000000000000000000, -17.97000000000000600 ) ) ;
#109 = ORIENTED_EDGE ( 'NONE', *, *, #208, .T. ) ;
#110 = CARTESIAN_POINT ( 'NONE',  ( 0.1574999999999941400, 1.928818708657009500E-017, 18.00000000000000000 ) ) ;
#111 = CARTESIAN_POINT ( 'NONE',  ( 0.0000000000000000000, 0.0000000000000000000, -18.00000000000000000 ) ) ;
#112 = EDGE_CURVE ( 'NONE', #163, #98, #198, .T. ) ;
#113 = CARTESIAN_POINT ( 'NONE',  ( -0.1575000000000028900, 2.112515728529202100E-017, -18.00000000000000000 ) ) ;
#114 = UNCERTAINTY_MEASURE_WITH_UNIT (LENGTH_MEASURE( 1.000000000000000100E-005 ), #43, 'distance_accuracy_value', 'NONE');
#115 = PLANE ( 'NONE',  #170 ) ;
#116 = LINE ( 'NONE', #110, #157 ) ;
#117 = CARTESIAN_POINT ( 'NONE',  ( 0.0000000000000000000, 0.0000000000000000000, 0.0000000000000000000 ) ) ;
#118 = APPLICATION_CONTEXT ( 'automotive_design' ) ;
#119 = APPLICATION_PROTOCOL_DEFINITION ( 'draft international standard', 'automotive_design', 1998, #220 ) ;
#120 = VERTEX_POINT ( 'NONE', #89 ) ;
#121 = AXIS2_PLACEMENT_3D ( 'NONE', #197, #91, #147 ) ;
#122 = CYLINDRICAL_SURFACE ( 'NONE', #176, 0.1875000000000000300 ) ;
#123 = VERTEX_POINT ( 'NONE', #215 ) ;
#124 = EDGE_CURVE ( 'NONE', #98, #101, #116, .T. ) ;
#125 = FACE_OUTER_BOUND ( 'NONE', #104, .T. ) ;
#126 = DIRECTION ( 'NONE',  ( -1.000000000000000000, 0.0000000000000000000, 0.0000000000000000000 ) ) ;
#127 = VECTOR ( 'NONE', #36, 39.37007874015748100 ) ;
#128 = DIRECTION ( 'NONE',  ( 1.000000000000000000, 0.0000000000000000000, 0.0000000000000000000 ) ) ;
#129 = VERTEX_POINT ( 'NONE', #165 ) ;
#130 = DIRECTION ( 'NONE',  ( 1.000000000000000000, 0.0000000000000000000, 0.0000000000000000000 ) ) ;
#131 = CARTESIAN_POINT ( 'NONE',  ( 0.0000000000000000000, 0.0000000000000000000, 18.00000000000000000 ) ) ;
#132 = DIRECTION ( 'NONE',  ( 1.000000000000000000, 0.0000000000000000000, 0.0000000000000000000 ) ) ;
#133 = AXIS2_PLACEMENT_3D ( 'NONE', #169, #50, #187 ) ;
#134 = SURFACE_SIDE_STYLE ('',( #217 ) ) ;
#135 = FACE_OUTER_BOUND ( 'NONE', #151, .T. ) ;
#136 = ORIENTED_EDGE ( 'NONE', *, *, #223, .T. ) ;
#137 = DIRECTION ( 'NONE',  ( -0.7071067811865978700, 8.659560562355549200E-017, 0.7071067811864972800 ) ) ;
#138 = EDGE_CURVE ( 'NONE', #81, #203, #55, .T. ) ;
#139 = CIRCLE ( 'NONE', #154, 0.1574999999999941400 ) ;
#140 = DIRECTION ( 'NONE',  ( 1.000000000000000000, 0.0000000000000000000, 0.0000000000000000000 ) ) ;
#141 = DIRECTION ( 'NONE',  ( 0.0000000000000000000, 0.0000000000000000000, -1.000000000000000000 ) ) ;
#142 = SURFACE_SIDE_STYLE ('',( #86 ) ) ;
#143 = EDGE_LOOP ( 'NONE', ( #195, #191, #136, #226 ) ) ;
#144 = DIRECTION ( 'NONE',  ( 1.000000000000000000, 0.0000000000000000000, 0.0000000000000000000 ) ) ;
#145 = CARTESIAN_POINT ( 'NONE',  ( 0.0000000000000000000, 0.0000000000000000000, 18.00000000000000000 ) ) ;
#146 = AXIS2_PLACEMENT_3D ( 'NONE', #159, #40, #140 ) ;
#147 = DIRECTION ( 'NONE',  ( -1.000000000000000000, 0.0000000000000000000, 0.0000000000000000000 ) ) ;
#148 = DIRECTION ( 'NONE',  ( 0.0000000000000000000, 0.0000000000000000000, 1.000000000000000000 ) ) ;
#149 =( LENGTH_UNIT ( ) NAMED_UNIT ( * ) SI_UNIT ( $, .METRE. ) );
#150 = ADVANCED_FACE ( 'NONE', ( #205 ), #59, .T. ) ;
#151 = EDGE_LOOP ( 'NONE', ( #76, #178, #46, #65 ) ) ;
#152 = LENGTH_MEASURE_WITH_UNIT ( LENGTH_MEASURE( 0.02539999999999999900 ), #149 );
#153 = ORIENTED_EDGE ( 'NONE', *, *, #233, .T. ) ;
#154 = AXIS2_PLACEMENT_3D ( 'NONE', #8, #148, #26 ) ;
#155 = ORIENTED_EDGE ( 'NONE', *, *, #13, .T. ) ;
#156 = AXIS2_PLACEMENT_3D ( 'NONE', #193, #85, #211 ) ;
#157 = VECTOR ( 'NONE', #232, 39.37007874015748100 ) ;
#158 = SHAPE_DEFINITION_REPRESENTATION ( #41, #39 ) ;
#159 = CARTESIAN_POINT ( 'NONE',  ( 0.0000000000000000000, 0.0000000000000000000, -17.97000000000000600 ) ) ;
#160 = ADVANCED_FACE ( 'NONE', ( #80 ), #47, .T. ) ;
#161 = FILL_AREA_STYLE_COLOUR ( '', #225 ) ;
#162 = FACE_OUTER_BOUND ( 'NONE', #221, .T. ) ;
#163 = VERTEX_POINT ( 'NONE', #24 ) ;
#164 =( LENGTH_UNIT ( ) NAMED_UNIT ( * ) SI_UNIT ( $, .METRE. ) );
#165 = CARTESIAN_POINT ( 'NONE',  ( 0.1875000000000000300, 2.296212748401287700E-017, -17.97000000000000600 ) ) ;
#166 = CARTESIAN_POINT ( 'NONE',  ( -0.1574999999999941400, 0.0000000000000000000, 18.00000000000000000 ) ) ;
#167 = FACE_OUTER_BOUND ( 'NONE', #37, .T. ) ;
#168 = FACE_OUTER_BOUND ( 'NONE', #143, .T. ) ;
#169 = CARTESIAN_POINT ( 'NONE',  ( 0.0000000000000000000, 0.0000000000000000000, 17.96999999999999900 ) ) ;
#170 = AXIS2_PLACEMENT_3D ( 'NONE', #25, #71, #199 ) ;
#171 =( LENGTH_UNIT ( ) NAMED_UNIT ( * ) SI_UNIT ( $, .METRE. ) );
#172 =( NAMED_UNIT ( * ) PLANE_ANGLE_UNIT ( ) SI_UNIT ( $, .RADIAN. ) );
#173 = ADVANCED_FACE ( 'NONE', ( #168 ), #69, .T. ) ;
#174 = LINE ( 'NONE', #180, #15 ) ;
#175 = ORIENTED_EDGE ( 'NONE', *, *, #99, .T. ) ;
#176 = AXIS2_PLACEMENT_3D ( 'NONE', #247, #84, #126 ) ;
#177 = CIRCLE ( 'NONE', #185, 0.1875000000000000300 ) ;
#178 = ORIENTED_EDGE ( 'NONE', *, *, #138, .F. ) ;
#179 =( GEOMETRIC_REPRESENTATION_CONTEXT ( 3 ) GLOBAL_UNCERTAINTY_ASSIGNED_CONTEXT ( ( #94 ) ) GLOBAL_UNIT_ASSIGNED_CONTEXT ( ( #51, #188, #72 ) ) REPRESENTATION_CONTEXT ( 'NONE', 'WORKASPACE' ) );
#180 = CARTESIAN_POINT ( 'NONE',  ( 0.1875000000000000300, 0.0000000000000000000, -17.97000000000000600 ) ) ;
#181 = PRESENTATION_STYLE_ASSIGNMENT (( #22 ) ) ;
#182 = PRODUCT ( 'RPSS06-36', 'RPSS06-36', '', ( #95 ) ) ;
#183 =( NAMED_UNIT ( * ) PLANE_ANGLE_UNIT ( ) SI_UNIT ( $, .RADIAN. ) );
#184 = DIRECTION ( 'NONE',  ( 1.000000000000000000, 0.0000000000000000000, -0.0000000000000000000 ) ) ;
#185 = AXIS2_PLACEMENT_3D ( 'NONE', #249, #141, #21 ) ;
#186 = DIRECTION ( 'NONE',  ( -0.0000000000000000000, -0.0000000000000000000, -1.000000000000000000 ) ) ;
#187 = DIRECTION ( 'NONE',  ( 1.000000000000000000, 0.0000000000000000000, 0.0000000000000000000 ) ) ;
#188 =( NAMED_UNIT ( * ) PLANE_ANGLE_UNIT ( ) SI_UNIT ( $, .RADIAN. ) );
#189 = CONICAL_SURFACE ( 'NONE', #192, 0.1875000000000000300, 0.7853981633975194400 ) ;
#190 = DIMENSIONAL_EXPONENTS ( 1.000000000000000000, 0.0000000000000000000, 0.0000000000000000000, 0.0000000000000000000, 0.0000000000000000000, 0.0000000000000000000, 0.0000000000000000000 ) ;
#191 = ORIENTED_EDGE ( 'NONE', *, *, #112, .F. ) ;
#192 = AXIS2_PLACEMENT_3D ( 'NONE', #107, #61, #128 ) ;
#193 = CARTESIAN_POINT ( 'NONE',  ( 0.0000000000000000000, 0.0000000000000000000, -17.97000000000000600 ) ) ;
#194 = CARTESIAN_POINT ( 'NONE',  ( 0.1575000000000028900, 0.0000000000000000000, -18.00000000000000000 ) ) ;
#195 = ORIENTED_EDGE ( 'NONE', *, *, #124, .F. ) ;
#196 = DIRECTION ( 'NONE',  ( 0.0000000000000000000, 0.0000000000000000000, 1.000000000000000000 ) ) ;
#197 = CARTESIAN_POINT ( 'NONE',  ( 0.0000000000000000000, 0.0000000000000000000, 18.00000000000000000 ) ) ;
#198 = CIRCLE ( 'NONE', #18, 0.1574999999999941400 ) ;
#199 = DIRECTION ( 'NONE',  ( 1.000000000000000000, 0.0000000000000000000, -0.0000000000000000000 ) ) ;
#200 = STYLED_ITEM ( 'NONE', ( #97 ), #39 ) ;
#201 = DIRECTION ( 'NONE',  ( 1.000000000000000000, 0.0000000000000000000, 0.0000000000000000000 ) ) ;
#202 = DIMENSIONAL_EXPONENTS ( 1.000000000000000000, 0.0000000000000000000, 0.0000000000000000000, 0.0000000000000000000, 0.0000000000000000000, 0.0000000000000000000, 0.0000000000000000000 ) ;
#203 = VERTEX_POINT ( 'NONE', #113 ) ;
#204 = AXIS2_PLACEMENT_3D ( 'NONE', #108, #231, #130 ) ;
#205 = FACE_OUTER_BOUND ( 'NONE', #30, .T. ) ;
#206 = VECTOR ( 'NONE', #137, 39.37007874015748100 ) ;
#207 = ORIENTED_EDGE ( 'NONE', *, *, #112, .T. ) ;
#208 = EDGE_CURVE ( 'NONE', #203, #81, #209, .T. ) ;
#209 = CIRCLE ( 'NONE', #103, 0.1575000000000028900 ) ;
#210 = PRESENTATION_LAYER_ASSIGNMENT (  '', '', ( #200 ) ) ;
#211 = DIRECTION ( 'NONE',  ( 1.000000000000000000, 0.0000000000000000000, 0.0000000000000000000 ) ) ;
#212 = PRODUCT_DEFINITION_CONTEXT ( 'detailed design', #220, 'design' ) ;
#213 = LINE ( 'NONE', #106, #127 ) ;
#214 = ORIENTED_EDGE ( 'NONE', *, *, #245, .F. ) ;
#215 = CARTESIAN_POINT ( 'NONE',  ( -0.1875000000000000300, 0.0000000000000000000, -17.97000000000000600 ) ) ;
#216 = DIRECTION ( 'NONE',  ( -1.000000000000000000, 0.0000000000000000000, 0.0000000000000000000 ) ) ;
#217 = SURFACE_STYLE_FILL_AREA ( #239 ) ;
#218 = STYLED_ITEM ( 'NONE', ( #181 ), #102 ) ;
#219 = VECTOR ( 'NONE', #229, 39.37007874015748100 ) ;
#220 = APPLICATION_CONTEXT ( 'automotive_design' ) ;
#221 = EDGE_LOOP ( 'NONE', ( #57, #155, #20, #16 ) ) ;
#222 = DIMENSIONAL_EXPONENTS ( 1.000000000000000000, 0.0000000000000000000, 0.0000000000000000000, 0.0000000000000000000, 0.0000000000000000000, 0.0000000000000000000, 0.0000000000000000000 ) ;
#223 = EDGE_CURVE ( 'NONE', #163, #120, #14, .T. ) ;
#224 = MECHANICAL_DESIGN_GEOMETRIC_PRESENTATION_REPRESENTATION (  '', ( #200 ), #238 ) ;
#225 = COLOUR_RGB ( '',0.7921568627450980000, 0.8196078431372548800, 0.9333333333333333500 ) ;
#226 = ORIENTED_EDGE ( 'NONE', *, *, #82, .F. ) ;
#227 = PRESENTATION_LAYER_ASSIGNMENT (  '', '', ( #218 ) ) ;
#228 = CARTESIAN_POINT ( 'NONE',  ( -0.1875000000000000300, 2.296212748401287700E-017, -17.97000000000000600 ) ) ;
#229 = DIRECTION ( 'NONE',  ( -0.0000000000000000000, -0.0000000000000000000, -1.000000000000000000 ) ) ;
#230 = ADVANCED_FACE ( 'NONE', ( #6 ), #78, .T. ) ;
#231 = DIRECTION ( 'NONE',  ( -0.0000000000000000000, -0.0000000000000000000, 1.000000000000000000 ) ) ;
#232 = DIRECTION ( 'NONE',  ( 0.7071067811865978700, 8.659560562355549200E-017, -0.7071067811864972800 ) ) ;
#233 = EDGE_CURVE ( 'NONE', #120, #101, #17, .T. ) ;
#234 = DIRECTION ( 'NONE',  ( -0.0000000000000000000, -0.0000000000000000000, -1.000000000000000000 ) ) ;
#235 = ORIENTED_EDGE ( 'NONE', *, *, #67, .T. ) ;
#236 = DIRECTION ( 'NONE',  ( -0.7071067811865978700, 0.0000000000000000000, -0.7071067811864972800 ) ) ;
#237 = LENGTH_MEASURE_WITH_UNIT ( LENGTH_MEASURE( 0.02539999999999999900 ), #164 );
#238 =( GEOMETRIC_REPRESENTATION_CONTEXT ( 3 ) GLOBAL_UNCERTAINTY_ASSIGNED_CONTEXT ( ( #243 ) ) GLOBAL_UNIT_ASSIGNED_CONTEXT ( ( #29, #172, #52 ) ) REPRESENTATION_CONTEXT ( 'NONE', 'WORKASPACE' ) );
#239 = FILL_AREA_STYLE ('',( #7 ) ) ;
#240 = ADVANCED_FACE ( 'NONE', ( #125 ), #115, .F. ) ;
#241 = ORIENTED_EDGE ( 'NONE', *, *, #245, .T. ) ;
#242 = MECHANICAL_DESIGN_GEOMETRIC_PRESENTATION_REPRESENTATION (  '', ( #218 ), #5 ) ;
#243 = UNCERTAINTY_MEASURE_WITH_UNIT (LENGTH_MEASURE( 1.000000000000000100E-005 ), #29, 'distance_accuracy_value', 'NONE');
#244 = ORIENTED_EDGE ( 'NONE', *, *, #23, .T. ) ;
#245 = EDGE_CURVE ( 'NONE', #98, #163, #139, .T. ) ;
#246 = VECTOR ( 'NONE', #236, 39.37007874015748100 ) ;
#247 = CARTESIAN_POINT ( 'NONE',  ( 0.0000000000000000000, 0.0000000000000000000, 18.00000000000000000 ) ) ;
#248 = CARTESIAN_POINT ( 'NONE',  ( -0.1875000000000000300, 0.0000000000000000000, 18.00000000000000000 ) ) ;
#249 = CARTESIAN_POINT ( 'NONE',  ( 0.0000000000000000000, 0.0000000000000000000, 17.96999999999999900 ) ) ;
ENDSEC;
END-ISO-10303-21;
