ISO-10303-21;
HEADER;
FILE_DESCRIPTION (( 'STEP AP214' ),
    '1' );
FILE_NAME ('RPSS08-12.step',
    '2017-08-09T17:45:26',
    ( '' ),
    ( '' ),
    'SwSTEP 2.0',
    'SolidWorks 2017',
    '' );
FILE_SCHEMA (( 'AUTOMOTIVE_DESIGN' ));
ENDSEC;

DATA;
#1 = CARTESIAN_POINT ( 'NONE',  ( 0.2500000000000000000, 3.061616997868382400E-017, 6.000000000000000900 ) ) ;
#2 = CARTESIAN_POINT ( 'NONE',  ( 0.0000000000000000000, 0.0000000000000000000, 5.970000000000004200 ) ) ;
#3 = FACE_OUTER_BOUND ( 'NONE', #106, .T. ) ;
#4 = ADVANCED_FACE ( 'NONE', ( #129 ), #208, .T. ) ;
#5 = DIRECTION ( 'NONE',  ( 1.000000000000000000, 0.0000000000000000000, 0.0000000000000000000 ) ) ;
#6 = AXIS2_PLACEMENT_3D ( 'NONE', #169, #91, #246 ) ;
#7 =( LENGTH_UNIT ( ) NAMED_UNIT ( * ) SI_UNIT ( $, .METRE. ) );
#8 =( NAMED_UNIT ( * ) PLANE_ANGLE_UNIT ( ) SI_UNIT ( $, .RADIAN. ) );
#9 = CARTESIAN_POINT ( 'NONE',  ( 0.0000000000000000000, 0.0000000000000000000, 0.0000000000000000000 ) ) ;
#10 = EDGE_CURVE ( 'NONE', #121, #240, #236, .T. ) ;
#11 = EDGE_LOOP ( 'NONE', ( #185, #153, #18, #111 ) ) ;
#12 = VERTEX_POINT ( 'NONE', #228 ) ;
#13 = COLOUR_RGB ( '',0.7921568627450980000, 0.8196078431372548800, 0.9333333333333333500 ) ;
#14 = PRESENTATION_LAYER_ASSIGNMENT (  '', '', ( #249 ) ) ;
#15 = CIRCLE ( 'NONE', #92, 0.2500000000000000000 ) ;
#16 = AXIS2_PLACEMENT_3D ( 'NONE', #21, #150, #43 ) ;
#17 = ORIENTED_EDGE ( 'NONE', *, *, #100, .T. ) ;
#18 = ORIENTED_EDGE ( 'NONE', *, *, #85, .F. ) ;
#19 = DIRECTION ( 'NONE',  ( 1.000000000000000000, 0.0000000000000000000, 0.0000000000000000000 ) ) ;
#20 = DIRECTION ( 'NONE',  ( 0.0000000000000000000, 0.0000000000000000000, -1.000000000000000000 ) ) ;
#21 = CARTESIAN_POINT ( 'NONE',  ( 0.0000000000000000000, 0.0000000000000000000, 6.000000000000000900 ) ) ;
#22 = DIRECTION ( 'NONE',  ( -0.0000000000000000000, -0.0000000000000000000, 1.000000000000000000 ) ) ;
#23 = ORIENTED_EDGE ( 'NONE', *, *, #60, .F. ) ;
#24 = ADVANCED_FACE ( 'NONE', ( #187 ), #190, .T. ) ;
#25 = CARTESIAN_POINT ( 'NONE',  ( -0.2500000000000000000, 0.0000000000000000000, 5.970000000000004200 ) ) ;
#26 = EDGE_CURVE ( 'NONE', #142, #12, #116, .T. ) ;
#27 = DIRECTION ( 'NONE',  ( 1.000000000000000000, 0.0000000000000000000, 0.0000000000000000000 ) ) ;
#28 = DIRECTION ( 'NONE',  ( 1.000000000000000000, 0.0000000000000000000, 0.0000000000000000000 ) ) ;
#29 =( NAMED_UNIT ( * ) PLANE_ANGLE_UNIT ( ) SI_UNIT ( $, .RADIAN. ) );
#30 = ORIENTED_EDGE ( 'NONE', *, *, #52, .F. ) ;
#31 = MECHANICAL_DESIGN_GEOMETRIC_PRESENTATION_REPRESENTATION (  '', ( #249 ), #41 ) ;
#32 = DIRECTION ( 'NONE',  ( 1.000000000000000000, 0.0000000000000000000, 0.0000000000000000000 ) ) ;
#33 = VERTEX_POINT ( 'NONE', #93 ) ;
#34 = ORIENTED_EDGE ( 'NONE', *, *, #85, .T. ) ;
#35 = AXIS2_PLACEMENT_3D ( 'NONE', #194, #57, #174 ) ;
#36 = ORIENTED_EDGE ( 'NONE', *, *, #10, .T. ) ;
#37 = EDGE_CURVE ( 'NONE', #56, #126, #38, .T. ) ;
#38 = LINE ( 'NONE', #229, #48 ) ;
#39 = DIRECTION ( 'NONE',  ( 0.0000000000000000000, 0.0000000000000000000, 1.000000000000000000 ) ) ;
#40 = CARTESIAN_POINT ( 'NONE',  ( 0.0000000000000000000, 0.0000000000000000000, 6.000000000000000900 ) ) ;
#41 =( GEOMETRIC_REPRESENTATION_CONTEXT ( 3 ) GLOBAL_UNCERTAINTY_ASSIGNED_CONTEXT ( ( #107 ) ) GLOBAL_UNIT_ASSIGNED_CONTEXT ( ( #220, #102, #239 ) ) REPRESENTATION_CONTEXT ( 'NONE', 'WORKASPACE' ) );
#42 = VERTEX_POINT ( 'NONE', #171 ) ;
#43 = DIRECTION ( 'NONE',  ( 1.000000000000000000, 0.0000000000000000000, 0.0000000000000000000 ) ) ;
#44 = CARTESIAN_POINT ( 'NONE',  ( -0.2199999999999894300, 2.877919977996215100E-017, -6.000000000000000900 ) ) ;
#45 = ADVANCED_FACE ( 'NONE', ( #143 ), #99, .T. ) ;
#46 = DIRECTION ( 'NONE',  ( -0.0000000000000000000, -0.0000000000000000000, -1.000000000000000000 ) ) ;
#47 = EDGE_LOOP ( 'NONE', ( #231, #224, #17, #219 ) ) ;
#48 = VECTOR ( 'NONE', #113, 39.37007874015748900 ) ;
#49 = DIRECTION ( 'NONE',  ( -0.0000000000000000000, -0.0000000000000000000, -1.000000000000000000 ) ) ;
#50 = AXIS2_PLACEMENT_3D ( 'NONE', #133, #22, #152 ) ;
#51 = APPLICATION_CONTEXT ( 'automotive_design' ) ;
#52 = EDGE_CURVE ( 'NONE', #126, #12, #53, .T. ) ;
#53 = CIRCLE ( 'NONE', #226, 0.2500000000000000000 ) ;
#54 = LENGTH_MEASURE_WITH_UNIT ( LENGTH_MEASURE( 0.02539999999999999900 ), #238 );
#55 = LINE ( 'NONE', #1, #207 ) ;
#56 = VERTEX_POINT ( 'NONE', #192 ) ;
#57 = DIRECTION ( 'NONE',  ( 0.0000000000000000000, 0.0000000000000000000, -1.000000000000000000 ) ) ;
#58 = CARTESIAN_POINT ( 'NONE',  ( 0.0000000000000000000, 0.0000000000000000000, 6.000000000000000900 ) ) ;
#59 = LINE ( 'NONE', #77, #163 ) ;
#60 = EDGE_CURVE ( 'NONE', #142, #56, #138, .T. ) ;
#61 = CARTESIAN_POINT ( 'NONE',  ( 0.0000000000000000000, 0.0000000000000000000, -5.969999999999990000 ) ) ;
#62 = DIRECTION ( 'NONE',  ( -0.0000000000000000000, -0.0000000000000000000, 1.000000000000000000 ) ) ;
#63 = FILL_AREA_STYLE_COLOUR ( '', #13 ) ;
#64 = ORIENTED_EDGE ( 'NONE', *, *, #26, .F. ) ;
#65 = SURFACE_STYLE_FILL_AREA ( #198 ) ;
#66 = SURFACE_SIDE_STYLE ('',( #65 ) ) ;
#67 = CYLINDRICAL_SURFACE ( 'NONE', #105, 0.2500000000000000000 ) ;
#68 = AXIS2_PLACEMENT_3D ( 'NONE', #61, #196, #78 ) ;
#69 = ORIENTED_EDGE ( 'NONE', *, *, #179, .T. ) ;
#70 = PRESENTATION_STYLE_ASSIGNMENT (( #120 ) ) ;
#71 = EDGE_CURVE ( 'NONE', #121, #33, #245, .T. ) ;
#72 = ORIENTED_EDGE ( 'NONE', *, *, #125, .F. ) ;
#73 = CARTESIAN_POINT ( 'NONE',  ( 0.2200000000000036400, 2.694222958124221300E-017, 6.000000000000000900 ) ) ;
#74 = CARTESIAN_POINT ( 'NONE',  ( -0.2500000000000000000, 3.061616997868383000E-017, -5.969999999999990000 ) ) ;
#75 = AXIS2_PLACEMENT_3D ( 'NONE', #9, #141, #32 ) ;
#76 = ORIENTED_EDGE ( 'NONE', *, *, #37, .T. ) ;
#77 = CARTESIAN_POINT ( 'NONE',  ( -0.2500000000000000000, 0.0000000000000000000, 6.000000000000000900 ) ) ;
#78 = DIRECTION ( 'NONE',  ( 1.000000000000000000, 0.0000000000000000000, 0.0000000000000000000 ) ) ;
#79 = ADVANCED_FACE ( 'NONE', ( #145 ), #155, .T. ) ;
#80 = DIRECTION ( 'NONE',  ( 1.000000000000000000, 0.0000000000000000000, 0.0000000000000000000 ) ) ;
#81 = EDGE_LOOP ( 'NONE', ( #64, #84, #76, #227 ) ) ;
#82 = AXIS2_PLACEMENT_3D ( 'NONE', #115, #98, #232 ) ;
#83 =( LENGTH_UNIT ( ) NAMED_UNIT ( * ) SI_UNIT ( $, .METRE. ) );
#84 = ORIENTED_EDGE ( 'NONE', *, *, #164, .F. ) ;
#85 = EDGE_CURVE ( 'NONE', #42, #33, #104, .T. ) ;
#86 = VECTOR ( 'NONE', #210, 39.37007874015748900 ) ;
#87 = PRODUCT_DEFINITION ( 'UNKNOWN', '', #103, #96 ) ;
#88 = DIMENSIONAL_EXPONENTS ( 1.000000000000000000, 0.0000000000000000000, 0.0000000000000000000, 0.0000000000000000000, 0.0000000000000000000, 0.0000000000000000000, 0.0000000000000000000 ) ;
#89 = CLOSED_SHELL ( 'NONE', ( #79, #195, #24, #134, #4, #117, #235, #45 ) ) ;
#90 = LINE ( 'NONE', #97, #204 ) ;
#91 = DIRECTION ( 'NONE',  ( -0.0000000000000000000, -0.0000000000000000000, -1.000000000000000000 ) ) ;
#92 = AXIS2_PLACEMENT_3D ( 'NONE', #2, #135, #27 ) ;
#93 = CARTESIAN_POINT ( 'NONE',  ( -0.2500000000000000000, 0.0000000000000000000, -5.969999999999990000 ) ) ;
#94 = EDGE_LOOP ( 'NONE', ( #132, #243, #34, #72 ) ) ;
#95 = DIRECTION ( 'NONE',  ( 0.0000000000000000000, 0.0000000000000000000, -1.000000000000000000 ) ) ;
#96 = PRODUCT_DEFINITION_CONTEXT ( 'detailed design', #51, 'design' ) ;
#97 = CARTESIAN_POINT ( 'NONE',  ( 0.2500000000000000000, 0.0000000000000000000, -5.969999999999990000 ) ) ;
#98 = DIRECTION ( 'NONE',  ( 0.0000000000000000000, 0.0000000000000000000, 1.000000000000000000 ) ) ;
#99 = CONICAL_SURFACE ( 'NONE', #242, 0.2200000000000036400, 0.7853981633974522800 ) ;
#100 = EDGE_CURVE ( 'NONE', #240, #42, #90, .T. ) ;
#101 = FILL_AREA_STYLE ('',( #217 ) ) ;
#102 =( NAMED_UNIT ( * ) PLANE_ANGLE_UNIT ( ) SI_UNIT ( $, .RADIAN. ) );
#103 = PRODUCT_DEFINITION_FORMATION_WITH_SPECIFIED_SOURCE ( 'ANY', '', #168, .NOT_KNOWN. ) ;
#104 = CIRCLE ( 'NONE', #50, 0.2500000000000000000 ) ;
#105 = AXIS2_PLACEMENT_3D ( 'NONE', #58, #46, #178 ) ;
#106 = EDGE_LOOP ( 'NONE', ( #69, #36 ) ) ;
#107 = UNCERTAINTY_MEASURE_WITH_UNIT (LENGTH_MEASURE( 1.000000000000000100E-005 ), #220, 'distance_accuracy_value', 'NONE');
#108 = CIRCLE ( 'NONE', #68, 0.2500000000000000000 ) ;
#109 = EDGE_CURVE ( 'NONE', #12, #42, #55, .T. ) ;
#110 = DIMENSIONAL_EXPONENTS ( 1.000000000000000000, 0.0000000000000000000, 0.0000000000000000000, 0.0000000000000000000, 0.0000000000000000000, 0.0000000000000000000, 0.0000000000000000000 ) ;
#111 = ORIENTED_EDGE ( 'NONE', *, *, #100, .F. ) ;
#112 = PRESENTATION_STYLE_ASSIGNMENT (( #201 ) ) ;
#113 = DIRECTION ( 'NONE',  ( -0.7071067811865502400, 0.0000000000000000000, -0.7071067811865446900 ) ) ;
#114 = PRODUCT_RELATED_PRODUCT_CATEGORY ( 'part', '', ( #168 ) ) ;
#115 = CARTESIAN_POINT ( 'NONE',  ( 0.0000000000000000000, 0.0000000000000000000, -6.000000000000000900 ) ) ;
#116 = LINE ( 'NONE', #73, #86 ) ;
#117 = ADVANCED_FACE ( 'NONE', ( #3 ), #214, .F. ) ;
#118 = CIRCLE ( 'NONE', #131, 0.2199999999999894300 ) ;
#119 = DIRECTION ( 'NONE',  ( 0.0000000000000000000, 0.0000000000000000000, 1.000000000000000000 ) ) ;
#120 = SURFACE_STYLE_USAGE ( .BOTH. , #237 ) ;
#121 = VERTEX_POINT ( 'NONE', #44 ) ;
#122 = AXIS2_PLACEMENT_3D ( 'NONE', #234, #119, #5 ) ;
#123 =( CONVERSION_BASED_UNIT ( 'INCH', #54 ) LENGTH_UNIT ( ) NAMED_UNIT ( #110 ) );
#124 = COLOUR_RGB ( '',0.7921568627450980000, 0.8196078431372548800, 0.9333333333333333500 ) ;
#125 = EDGE_CURVE ( 'NONE', #126, #33, #59, .T. ) ;
#126 = VERTEX_POINT ( 'NONE', #25 ) ;
#127 = ORIENTED_EDGE ( 'NONE', *, *, #136, .T. ) ;
#128 = DIRECTION ( 'NONE',  ( 1.000000000000000000, 0.0000000000000000000, -0.0000000000000000000 ) ) ;
#129 = FACE_OUTER_BOUND ( 'NONE', #181, .T. ) ;
#130 = DIRECTION ( 'NONE',  ( -0.0000000000000000000, -0.0000000000000000000, -1.000000000000000000 ) ) ;
#131 = AXIS2_PLACEMENT_3D ( 'NONE', #157, #49, #180 ) ;
#132 = ORIENTED_EDGE ( 'NONE', *, *, #52, .T. ) ;
#133 = CARTESIAN_POINT ( 'NONE',  ( 0.0000000000000000000, 0.0000000000000000000, -5.969999999999990000 ) ) ;
#134 = ADVANCED_FACE ( 'NONE', ( #215 ), #67, .T. ) ;
#135 = DIRECTION ( 'NONE',  ( 0.0000000000000000000, 0.0000000000000000000, -1.000000000000000000 ) ) ;
#136 = EDGE_CURVE ( 'NONE', #12, #126, #15, .T. ) ;
#137 = CARTESIAN_POINT ( 'NONE',  ( 0.0000000000000000000, 0.0000000000000000000, -5.969999999999990000 ) ) ;
#138 = CIRCLE ( 'NONE', #16, 0.2200000000000036400 ) ;
#139 =( CONVERSION_BASED_UNIT ( 'INCH', #186 ) LENGTH_UNIT ( ) NAMED_UNIT ( #88 ) );
#140 =( NAMED_UNIT ( * ) SI_UNIT ( $, .STERADIAN. ) SOLID_ANGLE_UNIT ( ) );
#141 = DIRECTION ( 'NONE',  ( 0.0000000000000000000, 0.0000000000000000000, 1.000000000000000000 ) ) ;
#142 = VERTEX_POINT ( 'NONE', #233 ) ;
#143 = FACE_OUTER_BOUND ( 'NONE', #81, .T. ) ;
#144 = AXIS2_PLACEMENT_3D ( 'NONE', #137, #156, #28 ) ;
#145 = FACE_OUTER_BOUND ( 'NONE', #165, .T. ) ;
#146 = EDGE_CURVE ( 'NONE', #33, #42, #108, .T. ) ;
#147 = DIRECTION ( 'NONE',  ( -1.000000000000000000, 0.0000000000000000000, 0.0000000000000000000 ) ) ;
#148 = ORIENTED_EDGE ( 'NONE', *, *, #146, .T. ) ;
#149 = DIRECTION ( 'NONE',  ( -0.7071067811865502400, 8.659560562354967400E-017, 0.7071067811865446900 ) ) ;
#150 = DIRECTION ( 'NONE',  ( 0.0000000000000000000, 0.0000000000000000000, 1.000000000000000000 ) ) ;
#151 = ADVANCED_BREP_SHAPE_REPRESENTATION ( 'RPSS08-12', ( #218, #75 ), #223 ) ;
#152 = DIRECTION ( 'NONE',  ( 1.000000000000000000, 0.0000000000000000000, 0.0000000000000000000 ) ) ;
#153 = ORIENTED_EDGE ( 'NONE', *, *, #71, .T. ) ;
#154 = DIRECTION ( 'NONE',  ( -0.0000000000000000000, -0.0000000000000000000, -1.000000000000000000 ) ) ;
#155 = CONICAL_SURFACE ( 'NONE', #35, 0.2200000000000036400, 0.7853981633974522800 ) ;
#156 = DIRECTION ( 'NONE',  ( -0.0000000000000000000, -0.0000000000000000000, 1.000000000000000000 ) ) ;
#157 = CARTESIAN_POINT ( 'NONE',  ( 0.0000000000000000000, 0.0000000000000000000, -6.000000000000000900 ) ) ;
#158 =( NAMED_UNIT ( * ) SI_UNIT ( $, .STERADIAN. ) SOLID_ANGLE_UNIT ( ) );
#159 = STYLED_ITEM ( 'NONE', ( #70 ), #218 ) ;
#160 = APPLICATION_PROTOCOL_DEFINITION ( 'draft international standard', 'automotive_design', 1998, #183 ) ;
#161 = ORIENTED_EDGE ( 'NONE', *, *, #26, .T. ) ;
#162 = PRODUCT_CONTEXT ( 'NONE', #183, 'mechanical' ) ;
#163 = VECTOR ( 'NONE', #154, 39.37007874015748100 ) ;
#164 = EDGE_CURVE ( 'NONE', #56, #142, #197, .T. ) ;
#165 = EDGE_LOOP ( 'NONE', ( #23, #161, #30, #170 ) ) ;
#166 = LENGTH_MEASURE_WITH_UNIT ( LENGTH_MEASURE( 0.02539999999999999900 ), #83 );
#167 = FACE_OUTER_BOUND ( 'NONE', #11, .T. ) ;
#168 = PRODUCT ( 'RPSS08-12', 'RPSS08-12', '', ( #162 ) ) ;
#169 = CARTESIAN_POINT ( 'NONE',  ( 0.0000000000000000000, 0.0000000000000000000, 6.000000000000000900 ) ) ;
#170 = ORIENTED_EDGE ( 'NONE', *, *, #37, .F. ) ;
#171 = CARTESIAN_POINT ( 'NONE',  ( 0.2500000000000000000, 3.061616997868382400E-017, -5.969999999999990000 ) ) ;
#172 = PRESENTATION_LAYER_ASSIGNMENT (  '', '', ( #159 ) ) ;
#173 = PRODUCT_DEFINITION_SHAPE ( 'NONE', 'NONE',  #87 ) ;
#174 = DIRECTION ( 'NONE',  ( -1.000000000000000000, 0.0000000000000000000, 0.0000000000000000000 ) ) ;
#175 = ORIENTED_EDGE ( 'NONE', *, *, #60, .T. ) ;
#176 = DIRECTION ( 'NONE',  ( -0.0000000000000000000, -0.0000000000000000000, -1.000000000000000000 ) ) ;
#177 = SURFACE_STYLE_FILL_AREA ( #101 ) ;
#178 = DIRECTION ( 'NONE',  ( -1.000000000000000000, 0.0000000000000000000, 0.0000000000000000000 ) ) ;
#179 = EDGE_CURVE ( 'NONE', #240, #121, #118, .T. ) ;
#180 = DIRECTION ( 'NONE',  ( 1.000000000000000000, 0.0000000000000000000, 0.0000000000000000000 ) ) ;
#181 = EDGE_LOOP ( 'NONE', ( #222, #175 ) ) ;
#182 = CARTESIAN_POINT ( 'NONE',  ( 0.0000000000000000000, 0.0000000000000000000, -5.969999999999990000 ) ) ;
#183 = APPLICATION_CONTEXT ( 'automotive_design' ) ;
#184 = APPLICATION_PROTOCOL_DEFINITION ( 'draft international standard', 'automotive_design', 1998, #51 ) ;
#185 = ORIENTED_EDGE ( 'NONE', *, *, #10, .F. ) ;
#186 = LENGTH_MEASURE_WITH_UNIT ( LENGTH_MEASURE( 0.02539999999999999900 ), #7 );
#187 = FACE_OUTER_BOUND ( 'NONE', #94, .T. ) ;
#188 = MECHANICAL_DESIGN_GEOMETRIC_PRESENTATION_REPRESENTATION (  '', ( #159 ), #200 ) ;
#189 = EDGE_LOOP ( 'NONE', ( #209, #127, #206, #148 ) ) ;
#190 = CYLINDRICAL_SURFACE ( 'NONE', #6, 0.2500000000000000000 ) ;
#191 = CARTESIAN_POINT ( 'NONE',  ( 0.0000000000000000000, 0.0000000000000000000, 6.000000000000000900 ) ) ;
#192 = CARTESIAN_POINT ( 'NONE',  ( -0.2200000000000036400, 0.0000000000000000000, 6.000000000000000900 ) ) ;
#193 = SHAPE_DEFINITION_REPRESENTATION ( #173, #151 ) ;
#194 = CARTESIAN_POINT ( 'NONE',  ( 0.0000000000000000000, 0.0000000000000000000, 6.000000000000000900 ) ) ;
#195 = ADVANCED_FACE ( 'NONE', ( #167 ), #225, .T. ) ;
#196 = DIRECTION ( 'NONE',  ( -0.0000000000000000000, -0.0000000000000000000, 1.000000000000000000 ) ) ;
#197 = CIRCLE ( 'NONE', #122, 0.2200000000000036400 ) ;
#198 = FILL_AREA_STYLE ('',( #63 ) ) ;
#199 = CARTESIAN_POINT ( 'NONE',  ( 0.2199999999999894300, 0.0000000000000000000, -6.000000000000000900 ) ) ;
#200 =( GEOMETRIC_REPRESENTATION_CONTEXT ( 3 ) GLOBAL_UNCERTAINTY_ASSIGNED_CONTEXT ( ( #244 ) ) GLOBAL_UNIT_ASSIGNED_CONTEXT ( ( #139, #29, #158 ) ) REPRESENTATION_CONTEXT ( 'NONE', 'WORKASPACE' ) );
#201 = SURFACE_STYLE_USAGE ( .BOTH. , #66 ) ;
#202 = CONICAL_SURFACE ( 'NONE', #211, 0.2500000000000000000, 0.7853981633974522800 ) ;
#203 = UNCERTAINTY_MEASURE_WITH_UNIT (LENGTH_MEASURE( 1.000000000000000100E-005 ), #123, 'distance_accuracy_value', 'NONE');
#204 = VECTOR ( 'NONE', #213, 39.37007874015748900 ) ;
#205 = AXIS2_PLACEMENT_3D ( 'NONE', #248, #130, #19 ) ;
#206 = ORIENTED_EDGE ( 'NONE', *, *, #125, .T. ) ;
#207 = VECTOR ( 'NONE', #176, 39.37007874015748100 ) ;
#208 = PLANE ( 'NONE',  #216 ) ;
#209 = ORIENTED_EDGE ( 'NONE', *, *, #109, .F. ) ;
#210 = DIRECTION ( 'NONE',  ( 0.7071067811865502400, 8.659560562354966100E-017, -0.7071067811865446900 ) ) ;
#211 = AXIS2_PLACEMENT_3D ( 'NONE', #182, #62, #80 ) ;
#212 = CARTESIAN_POINT ( 'NONE',  ( 0.0000000000000000000, 0.0000000000000000000, 5.970000000000004200 ) ) ;
#213 = DIRECTION ( 'NONE',  ( 0.7071067811865502400, 0.0000000000000000000, 0.7071067811865446900 ) ) ;
#214 = PLANE ( 'NONE',  #82 ) ;
#215 = FACE_OUTER_BOUND ( 'NONE', #189, .T. ) ;
#216 = AXIS2_PLACEMENT_3D ( 'NONE', #191, #39, #128 ) ;
#217 = FILL_AREA_STYLE_COLOUR ( '', #124 ) ;
#218 = MANIFOLD_SOLID_BREP ( 'Chamfer1', #89 ) ;
#219 = ORIENTED_EDGE ( 'NONE', *, *, #146, .F. ) ;
#220 =( CONVERSION_BASED_UNIT ( 'INCH', #166 ) LENGTH_UNIT ( ) NAMED_UNIT ( #247 ) );
#221 = FACE_OUTER_BOUND ( 'NONE', #47, .T. ) ;
#222 = ORIENTED_EDGE ( 'NONE', *, *, #164, .T. ) ;
#223 =( GEOMETRIC_REPRESENTATION_CONTEXT ( 3 ) GLOBAL_UNCERTAINTY_ASSIGNED_CONTEXT ( ( #203 ) ) GLOBAL_UNIT_ASSIGNED_CONTEXT ( ( #123, #8, #140 ) ) REPRESENTATION_CONTEXT ( 'NONE', 'WORKASPACE' ) );
#224 = ORIENTED_EDGE ( 'NONE', *, *, #179, .F. ) ;
#225 = CONICAL_SURFACE ( 'NONE', #144, 0.2500000000000000000, 0.7853981633974522800 ) ;
#226 = AXIS2_PLACEMENT_3D ( 'NONE', #212, #95, #230 ) ;
#227 = ORIENTED_EDGE ( 'NONE', *, *, #136, .F. ) ;
#228 = CARTESIAN_POINT ( 'NONE',  ( 0.2500000000000000000, 3.061616997868382400E-017, 5.970000000000004200 ) ) ;
#229 = CARTESIAN_POINT ( 'NONE',  ( -0.2200000000000036400, 0.0000000000000000000, 6.000000000000000900 ) ) ;
#230 = DIRECTION ( 'NONE',  ( 1.000000000000000000, 0.0000000000000000000, 0.0000000000000000000 ) ) ;
#231 = ORIENTED_EDGE ( 'NONE', *, *, #71, .F. ) ;
#232 = DIRECTION ( 'NONE',  ( 1.000000000000000000, 0.0000000000000000000, -0.0000000000000000000 ) ) ;
#233 = CARTESIAN_POINT ( 'NONE',  ( 0.2200000000000036400, 2.877919977996302000E-017, 6.000000000000000900 ) ) ;
#234 = CARTESIAN_POINT ( 'NONE',  ( 0.0000000000000000000, 0.0000000000000000000, 6.000000000000000900 ) ) ;
#235 = ADVANCED_FACE ( 'NONE', ( #221 ), #202, .T. ) ;
#236 = CIRCLE ( 'NONE', #205, 0.2199999999999894300 ) ;
#237 = SURFACE_SIDE_STYLE ('',( #177 ) ) ;
#238 =( LENGTH_UNIT ( ) NAMED_UNIT ( * ) SI_UNIT ( $, .METRE. ) );
#239 =( NAMED_UNIT ( * ) SI_UNIT ( $, .STERADIAN. ) SOLID_ANGLE_UNIT ( ) );
#240 = VERTEX_POINT ( 'NONE', #199 ) ;
#241 = VECTOR ( 'NONE', #149, 39.37007874015748900 ) ;
#242 = AXIS2_PLACEMENT_3D ( 'NONE', #40, #20, #147 ) ;
#243 = ORIENTED_EDGE ( 'NONE', *, *, #109, .T. ) ;
#244 = UNCERTAINTY_MEASURE_WITH_UNIT (LENGTH_MEASURE( 1.000000000000000100E-005 ), #139, 'distance_accuracy_value', 'NONE');
#245 = LINE ( 'NONE', #74, #241 ) ;
#246 = DIRECTION ( 'NONE',  ( -1.000000000000000000, 0.0000000000000000000, 0.0000000000000000000 ) ) ;
#247 = DIMENSIONAL_EXPONENTS ( 1.000000000000000000, 0.0000000000000000000, 0.0000000000000000000, 0.0000000000000000000, 0.0000000000000000000, 0.0000000000000000000, 0.0000000000000000000 ) ;
#248 = CARTESIAN_POINT ( 'NONE',  ( 0.0000000000000000000, 0.0000000000000000000, -6.000000000000000900 ) ) ;
#249 = STYLED_ITEM ( 'NONE', ( #112 ), #151 ) ;
ENDSEC;
END-ISO-10303-21;
