ISO-10303-21;
HEADER;
FILE_DESCRIPTION (( 'STEP AP214' ),
    '1' );
FILE_NAME ('RPSS08-24.step',
    '2017-08-09T17:45:42',
    ( '' ),
    ( '' ),
    'SwSTEP 2.0',
    'SolidWorks 2017',
    '' );
FILE_SCHEMA (( 'AUTOMOTIVE_DESIGN' ));
ENDSEC;

DATA;
#1 = CIRCLE ( 'NONE', #144, 0.2500000000000000000 ) ;
#2 = EDGE_LOOP ( 'NONE', ( #153, #191 ) ) ;
#3 = APPLICATION_CONTEXT ( 'automotive_design' ) ;
#4 = APPLICATION_PROTOCOL_DEFINITION ( 'draft international standard', 'automotive_design', 1998, #120 ) ;
#5 = DIRECTION ( 'NONE',  ( -1.000000000000000000, 0.0000000000000000000, 0.0000000000000000000 ) ) ;
#6 = ORIENTED_EDGE ( 'NONE', *, *, #103, .F. ) ;
#7 = CARTESIAN_POINT ( 'NONE',  ( 0.0000000000000000000, 0.0000000000000000000, 12.00000000000000200 ) ) ;
#8 = SURFACE_STYLE_FILL_AREA ( #248 ) ;
#9 = ADVANCED_FACE ( 'NONE', ( #125 ), #168, .T. ) ;
#10 = DIRECTION ( 'NONE',  ( 0.0000000000000000000, 0.0000000000000000000, 1.000000000000000000 ) ) ;
#11 = CONICAL_SURFACE ( 'NONE', #56, 0.2200000000000123800, 0.7853981633974340700 ) ;
#12 = ORIENTED_EDGE ( 'NONE', *, *, #185, .T. ) ;
#13 = EDGE_CURVE ( 'NONE', #18, #73, #46, .T. ) ;
#14 = FACE_OUTER_BOUND ( 'NONE', #68, .T. ) ;
#15 = VERTEX_POINT ( 'NONE', #242 ) ;
#16 = VECTOR ( 'NONE', #124, 39.37007874015748100 ) ;
#17 = SURFACE_STYLE_USAGE ( .BOTH. , #133 ) ;
#18 = VERTEX_POINT ( 'NONE', #143 ) ;
#19 = VERTEX_POINT ( 'NONE', #27 ) ;
#20 = DIRECTION ( 'NONE',  ( 1.000000000000000000, 0.0000000000000000000, -0.0000000000000000000 ) ) ;
#21 = SURFACE_SIDE_STYLE ('',( #43 ) ) ;
#22 = DIRECTION ( 'NONE',  ( 0.0000000000000000000, 0.0000000000000000000, -1.000000000000000000 ) ) ;
#23 = EDGE_CURVE ( 'NONE', #15, #18, #209, .T. ) ;
#24 = EDGE_LOOP ( 'NONE', ( #135, #29, #6, #42 ) ) ;
#25 = CARTESIAN_POINT ( 'NONE',  ( 0.0000000000000000000, 0.0000000000000000000, -12.00000000000000200 ) ) ;
#26 = FACE_OUTER_BOUND ( 'NONE', #244, .T. ) ;
#27 = CARTESIAN_POINT ( 'NONE',  ( 0.2199999999999774100, 0.0000000000000000000, -12.00000000000000200 ) ) ;
#28 = AXIS2_PLACEMENT_3D ( 'NONE', #39, #137, #85 ) ;
#29 = ORIENTED_EDGE ( 'NONE', *, *, #170, .T. ) ;
#30 = UNCERTAINTY_MEASURE_WITH_UNIT (LENGTH_MEASURE( 1.000000000000000100E-005 ), #33, 'distance_accuracy_value', 'NONE');
#31 = CARTESIAN_POINT ( 'NONE',  ( 0.0000000000000000000, 0.0000000000000000000, -11.96999999999998100 ) ) ;
#32 = CARTESIAN_POINT ( 'NONE',  ( -0.2200000000000123800, 0.0000000000000000000, 12.00000000000000200 ) ) ;
#33 =( CONVERSION_BASED_UNIT ( 'INCH', #224 ) LENGTH_UNIT ( ) NAMED_UNIT ( #205 ) );
#34 = EDGE_CURVE ( 'NONE', #73, #98, #117, .T. ) ;
#35 = ORIENTED_EDGE ( 'NONE', *, *, #151, .T. ) ;
#36 = CARTESIAN_POINT ( 'NONE',  ( 0.0000000000000000000, 0.0000000000000000000, 0.0000000000000000000 ) ) ;
#37 =( LENGTH_UNIT ( ) NAMED_UNIT ( * ) SI_UNIT ( $, .METRE. ) );
#38 = AXIS2_PLACEMENT_3D ( 'NONE', #159, #22, #5 ) ;
#39 = CARTESIAN_POINT ( 'NONE',  ( 0.0000000000000000000, 0.0000000000000000000, 12.00000000000000200 ) ) ;
#40 = CARTESIAN_POINT ( 'NONE',  ( 0.0000000000000000000, 0.0000000000000000000, -11.96999999999997800 ) ) ;
#41 = DIRECTION ( 'NONE',  ( 0.7071067811865374700, 8.659560562354809600E-017, -0.7071067811865575600 ) ) ;
#42 = ORIENTED_EDGE ( 'NONE', *, *, #91, .F. ) ;
#43 = SURFACE_STYLE_FILL_AREA ( #136 ) ;
#44 = ORIENTED_EDGE ( 'NONE', *, *, #13, .F. ) ;
#45 = CARTESIAN_POINT ( 'NONE',  ( 0.0000000000000000000, 0.0000000000000000000, 12.00000000000000200 ) ) ;
#46 = LINE ( 'NONE', #207, #150 ) ;
#47 = EDGE_CURVE ( 'NONE', #142, #177, #216, .T. ) ;
#48 = PRODUCT_DEFINITION_CONTEXT ( 'detailed design', #120, 'design' ) ;
#49 = VECTOR ( 'NONE', #173, 39.37007874015748100 ) ;
#50 = DIRECTION ( 'NONE',  ( 0.0000000000000000000, 0.0000000000000000000, 1.000000000000000000 ) ) ;
#51 = VERTEX_POINT ( 'NONE', #182 ) ;
#52 = DIRECTION ( 'NONE',  ( 1.000000000000000000, 0.0000000000000000000, 0.0000000000000000000 ) ) ;
#53 = VECTOR ( 'NONE', #83, 39.37007874015748100 ) ;
#54 = CARTESIAN_POINT ( 'NONE',  ( 0.2500000000000000000, 3.061616997868382400E-017, -11.96999999999997800 ) ) ;
#55 =( NAMED_UNIT ( * ) SI_UNIT ( $, .STERADIAN. ) SOLID_ANGLE_UNIT ( ) );
#56 = AXIS2_PLACEMENT_3D ( 'NONE', #7, #239, #201 ) ;
#57 = ORIENTED_EDGE ( 'NONE', *, *, #130, .F. ) ;
#58 = LENGTH_MEASURE_WITH_UNIT ( LENGTH_MEASURE( 0.02539999999999999900 ), #192 );
#59 = COLOUR_RGB ( '',0.7921568627450980000, 0.8196078431372548800, 0.9333333333333333500 ) ;
#60 = FACE_OUTER_BOUND ( 'NONE', #129, .T. ) ;
#61 =( NAMED_UNIT ( * ) PLANE_ANGLE_UNIT ( ) SI_UNIT ( $, .RADIAN. ) );
#62 = DIRECTION ( 'NONE',  ( -0.0000000000000000000, -0.0000000000000000000, 1.000000000000000000 ) ) ;
#63 = ORIENTED_EDGE ( 'NONE', *, *, #103, .T. ) ;
#64 = CARTESIAN_POINT ( 'NONE',  ( 0.2500000000000000000, 3.061616997868382400E-017, 12.00000000000000200 ) ) ;
#65 = EDGE_CURVE ( 'NONE', #19, #51, #67, .T. ) ;
#66 = CARTESIAN_POINT ( 'NONE',  ( 0.0000000000000000000, 0.0000000000000000000, 12.00000000000000200 ) ) ;
#67 = CIRCLE ( 'NONE', #200, 0.2199999999999774100 ) ;
#68 = EDGE_LOOP ( 'NONE', ( #166, #74, #206, #121 ) ) ;
#69 = ADVANCED_FACE ( 'NONE', ( #161 ), #105, .T. ) ;
#70 = DIRECTION ( 'NONE',  ( -1.000000000000000000, 0.0000000000000000000, 0.0000000000000000000 ) ) ;
#71 = CONICAL_SURFACE ( 'NONE', #38, 0.2200000000000123800, 0.7853981633974340700 ) ;
#72 = AXIS2_PLACEMENT_3D ( 'NONE', #181, #62, #199 ) ;
#73 = VERTEX_POINT ( 'NONE', #146 ) ;
#74 = ORIENTED_EDGE ( 'NONE', *, *, #23, .T. ) ;
#75 = DIRECTION ( 'NONE',  ( -0.0000000000000000000, -0.0000000000000000000, 1.000000000000000000 ) ) ;
#76 = PRODUCT_RELATED_PRODUCT_CATEGORY ( 'part', '', ( #172 ) ) ;
#77 = FACE_OUTER_BOUND ( 'NONE', #24, .T. ) ;
#78 = UNCERTAINTY_MEASURE_WITH_UNIT (LENGTH_MEASURE( 1.000000000000000100E-005 ), #196, 'distance_accuracy_value', 'NONE');
#79 = ORIENTED_EDGE ( 'NONE', *, *, #47, .T. ) ;
#80 = EDGE_CURVE ( 'NONE', #51, #19, #152, .T. ) ;
#81 = LINE ( 'NONE', #64, #16 ) ;
#82 =( NAMED_UNIT ( * ) PLANE_ANGLE_UNIT ( ) SI_UNIT ( $, .RADIAN. ) );
#83 = DIRECTION ( 'NONE',  ( -0.7071067811865889800, 8.659560562355440700E-017, 0.7071067811865059400 ) ) ;
#84 = AXIS2_PLACEMENT_3D ( 'NONE', #220, #100, #236 ) ;
#85 = DIRECTION ( 'NONE',  ( -1.000000000000000000, 0.0000000000000000000, 0.0000000000000000000 ) ) ;
#86 = CARTESIAN_POINT ( 'NONE',  ( 0.2200000000000123800, 2.877919977996355600E-017, 12.00000000000000200 ) ) ;
#87 = ADVANCED_FACE ( 'NONE', ( #110 ), #204, .T. ) ;
#88 = DIMENSIONAL_EXPONENTS ( 1.000000000000000000, 0.0000000000000000000, 0.0000000000000000000, 0.0000000000000000000, 0.0000000000000000000, 0.0000000000000000000, 0.0000000000000000000 ) ;
#89 = PRODUCT_DEFINITION_FORMATION_WITH_SPECIFIED_SOURCE ( 'ANY', '', #172, .NOT_KNOWN. ) ;
#90 = DIRECTION ( 'NONE',  ( 0.0000000000000000000, 0.0000000000000000000, -1.000000000000000000 ) ) ;
#91 = EDGE_CURVE ( 'NONE', #142, #18, #210, .T. ) ;
#92 = DIRECTION ( 'NONE',  ( -0.0000000000000000000, -0.0000000000000000000, 1.000000000000000000 ) ) ;
#93 = CARTESIAN_POINT ( 'NONE',  ( 0.0000000000000000000, 0.0000000000000000000, -12.00000000000000200 ) ) ;
#94 = ORIENTED_EDGE ( 'NONE', *, *, #140, .T. ) ;
#95 = CARTESIAN_POINT ( 'NONE',  ( 0.0000000000000000000, 0.0000000000000000000, 11.97000000000001300 ) ) ;
#96 =( GEOMETRIC_REPRESENTATION_CONTEXT ( 3 ) GLOBAL_UNCERTAINTY_ASSIGNED_CONTEXT ( ( #30 ) ) GLOBAL_UNIT_ASSIGNED_CONTEXT ( ( #33, #175, #55 ) ) REPRESENTATION_CONTEXT ( 'NONE', 'WORKASPACE' ) );
#97 = COLOUR_RGB ( '',0.7921568627450980000, 0.8196078431372548800, 0.9333333333333333500 ) ;
#98 = VERTEX_POINT ( 'NONE', #54 ) ;
#99 = PRODUCT_DEFINITION ( 'UNKNOWN', '', #89, #48 ) ;
#100 = DIRECTION ( 'NONE',  ( 0.0000000000000000000, 0.0000000000000000000, 1.000000000000000000 ) ) ;
#101 = DIRECTION ( 'NONE',  ( 1.000000000000000000, 0.0000000000000000000, 0.0000000000000000000 ) ) ;
#102 = CARTESIAN_POINT ( 'NONE',  ( -0.2200000000000123800, 0.0000000000000000000, 12.00000000000000200 ) ) ;
#103 = EDGE_CURVE ( 'NONE', #18, #15, #1, .T. ) ;
#104 = MANIFOLD_SOLID_BREP ( 'Chamfer1', #147 ) ;
#105 = CONICAL_SURFACE ( 'NONE', #188, 0.2500000000000000000, 0.7853981633975069000 ) ;
#106 = ORIENTED_EDGE ( 'NONE', *, *, #116, .T. ) ;
#107 = LINE ( 'NONE', #197, #53 ) ;
#108 = MECHANICAL_DESIGN_GEOMETRIC_PRESENTATION_REPRESENTATION (  '', ( #134 ), #96 ) ;
#109 = EDGE_LOOP ( 'NONE', ( #57, #194, #35, #214 ) ) ;
#110 = FACE_OUTER_BOUND ( 'NONE', #222, .T. ) ;
#111 = DIRECTION ( 'NONE',  ( -0.0000000000000000000, -0.0000000000000000000, -1.000000000000000000 ) ) ;
#112 = DIRECTION ( 'NONE',  ( 1.000000000000000000, 0.0000000000000000000, 0.0000000000000000000 ) ) ;
#113 = AXIS2_PLACEMENT_3D ( 'NONE', #36, #221, #101 ) ;
#114 = DIRECTION ( 'NONE',  ( 1.000000000000000000, 0.0000000000000000000, 0.0000000000000000000 ) ) ;
#115 = ORIENTED_EDGE ( 'NONE', *, *, #91, .T. ) ;
#116 = EDGE_CURVE ( 'NONE', #177, #142, #212, .T. ) ;
#117 = CIRCLE ( 'NONE', #249, 0.2500000000000000000 ) ;
#118 = ORIENTED_EDGE ( 'NONE', *, *, #170, .F. ) ;
#119 = CARTESIAN_POINT ( 'NONE',  ( 0.2500000000000000000, 0.0000000000000000000, -11.96999999999998100 ) ) ;
#120 = APPLICATION_CONTEXT ( 'automotive_design' ) ;
#121 = ORIENTED_EDGE ( 'NONE', *, *, #34, .T. ) ;
#122 = PRESENTATION_LAYER_ASSIGNMENT (  '', '', ( #134 ) ) ;
#123 = ADVANCED_BREP_SHAPE_REPRESENTATION ( 'RPSS08-24', ( #104, #113 ), #234 ) ;
#124 = DIRECTION ( 'NONE',  ( -0.0000000000000000000, -0.0000000000000000000, -1.000000000000000000 ) ) ;
#125 = FACE_OUTER_BOUND ( 'NONE', #211, .T. ) ;
#126 = DIMENSIONAL_EXPONENTS ( 1.000000000000000000, 0.0000000000000000000, 0.0000000000000000000, 0.0000000000000000000, 0.0000000000000000000, 0.0000000000000000000, 0.0000000000000000000 ) ;
#127 = VECTOR ( 'NONE', #138, 39.37007874015748100 ) ;
#128 = DIRECTION ( 'NONE',  ( -0.0000000000000000000, -0.0000000000000000000, -1.000000000000000000 ) ) ;
#129 = EDGE_LOOP ( 'NONE', ( #79, #106 ) ) ;
#130 = EDGE_CURVE ( 'NONE', #51, #73, #107, .T. ) ;
#131 = DIRECTION ( 'NONE',  ( 1.000000000000000000, 0.0000000000000000000, 0.0000000000000000000 ) ) ;
#132 = FILL_AREA_STYLE_COLOUR ( '', #59 ) ;
#133 = SURFACE_SIDE_STYLE ('',( #8 ) ) ;
#134 = STYLED_ITEM ( 'NONE', ( #145 ), #104 ) ;
#135 = ORIENTED_EDGE ( 'NONE', *, *, #116, .F. ) ;
#136 = FILL_AREA_STYLE ('',( #155 ) ) ;
#137 = DIRECTION ( 'NONE',  ( -0.0000000000000000000, -0.0000000000000000000, -1.000000000000000000 ) ) ;
#138 = DIRECTION ( 'NONE',  ( 0.7071067811865889800, 0.0000000000000000000, 0.7071067811865059400 ) ) ;
#139 = DIRECTION ( 'NONE',  ( 0.0000000000000000000, 0.0000000000000000000, 1.000000000000000000 ) ) ;
#140 = EDGE_CURVE ( 'NONE', #98, #73, #154, .T. ) ;
#141 = ADVANCED_FACE ( 'NONE', ( #14 ), #178, .T. ) ;
#142 = VERTEX_POINT ( 'NONE', #102 ) ;
#143 = CARTESIAN_POINT ( 'NONE',  ( -0.2500000000000000000, 0.0000000000000000000, 11.97000000000001300 ) ) ;
#144 = AXIS2_PLACEMENT_3D ( 'NONE', #95, #233, #114 ) ;
#145 = PRESENTATION_STYLE_ASSIGNMENT (( #17 ) ) ;
#146 = CARTESIAN_POINT ( 'NONE',  ( -0.2500000000000000000, 0.0000000000000000000, -11.96999999999997800 ) ) ;
#147 = CLOSED_SHELL ( 'NONE', ( #163, #87, #9, #141, #240, #225, #69, #187 ) ) ;
#148 =( GEOMETRIC_REPRESENTATION_CONTEXT ( 3 ) GLOBAL_UNCERTAINTY_ASSIGNED_CONTEXT ( ( #167 ) ) GLOBAL_UNIT_ASSIGNED_CONTEXT ( ( #180, #61, #198 ) ) REPRESENTATION_CONTEXT ( 'NONE', 'WORKASPACE' ) );
#149 =( LENGTH_UNIT ( ) NAMED_UNIT ( * ) SI_UNIT ( $, .METRE. ) );
#150 = VECTOR ( 'NONE', #128, 39.37007874015748100 ) ;
#151 = EDGE_CURVE ( 'NONE', #19, #98, #232, .T. ) ;
#152 = CIRCLE ( 'NONE', #176, 0.2199999999999774100 ) ;
#153 = ORIENTED_EDGE ( 'NONE', *, *, #65, .T. ) ;
#154 = CIRCLE ( 'NONE', #72, 0.2500000000000000000 ) ;
#155 = FILL_AREA_STYLE_COLOUR ( '', #97 ) ;
#156 = SURFACE_STYLE_USAGE ( .BOTH. , #21 ) ;
#157 = AXIS2_PLACEMENT_3D ( 'NONE', #213, #75, #52 ) ;
#158 = ORIENTED_EDGE ( 'NONE', *, *, #130, .T. ) ;
#159 = CARTESIAN_POINT ( 'NONE',  ( 0.0000000000000000000, 0.0000000000000000000, 12.00000000000000200 ) ) ;
#160 = PLANE ( 'NONE',  #218 ) ;
#161 = FACE_OUTER_BOUND ( 'NONE', #109, .T. ) ;
#162 = PRODUCT_DEFINITION_SHAPE ( 'NONE', 'NONE',  #99 ) ;
#163 = ADVANCED_FACE ( 'NONE', ( #77 ), #71, .T. ) ;
#164 = DIRECTION ( 'NONE',  ( -0.0000000000000000000, -0.0000000000000000000, -1.000000000000000000 ) ) ;
#165 = MECHANICAL_DESIGN_GEOMETRIC_PRESENTATION_REPRESENTATION (  '', ( #193 ), #148 ) ;
#166 = ORIENTED_EDGE ( 'NONE', *, *, #185, .F. ) ;
#167 = UNCERTAINTY_MEASURE_WITH_UNIT (LENGTH_MEASURE( 1.000000000000000100E-005 ), #180, 'distance_accuracy_value', 'NONE');
#168 = CYLINDRICAL_SURFACE ( 'NONE', #228, 0.2500000000000000000 ) ;
#169 = ORIENTED_EDGE ( 'NONE', *, *, #140, .F. ) ;
#170 = EDGE_CURVE ( 'NONE', #177, #15, #174, .T. ) ;
#171 = CARTESIAN_POINT ( 'NONE',  ( 0.0000000000000000000, 0.0000000000000000000, 12.00000000000000200 ) ) ;
#172 = PRODUCT ( 'RPSS08-24', 'RPSS08-24', '', ( #237 ) ) ;
#173 = DIRECTION ( 'NONE',  ( -0.7071067811865374700, 0.0000000000000000000, -0.7071067811865575600 ) ) ;
#174 = LINE ( 'NONE', #183, #226 ) ;
#175 =( NAMED_UNIT ( * ) PLANE_ANGLE_UNIT ( ) SI_UNIT ( $, .RADIAN. ) );
#176 = AXIS2_PLACEMENT_3D ( 'NONE', #93, #231, #112 ) ;
#177 = VERTEX_POINT ( 'NONE', #86 ) ;
#178 = CYLINDRICAL_SURFACE ( 'NONE', #28, 0.2500000000000000000 ) ;
#179 = PRESENTATION_LAYER_ASSIGNMENT (  '', '', ( #193 ) ) ;
#180 =( CONVERSION_BASED_UNIT ( 'INCH', #190 ) LENGTH_UNIT ( ) NAMED_UNIT ( #88 ) );
#181 = CARTESIAN_POINT ( 'NONE',  ( 0.0000000000000000000, 0.0000000000000000000, -11.96999999999997800 ) ) ;
#182 = CARTESIAN_POINT ( 'NONE',  ( -0.2199999999999774100, 2.877919977996141200E-017, -12.00000000000000200 ) ) ;
#183 = CARTESIAN_POINT ( 'NONE',  ( 0.2200000000000123800, 2.694222958124328900E-017, 12.00000000000000200 ) ) ;
#184 = PLANE ( 'NONE',  #243 ) ;
#185 = EDGE_CURVE ( 'NONE', #15, #98, #81, .T. ) ;
#186 = DIRECTION ( 'NONE',  ( -0.0000000000000000000, -0.0000000000000000000, 1.000000000000000000 ) ) ;
#187 = ADVANCED_FACE ( 'NONE', ( #26 ), #11, .T. ) ;
#188 = AXIS2_PLACEMENT_3D ( 'NONE', #31, #92, #131 ) ;
#189 = DIRECTION ( 'NONE',  ( 1.000000000000000000, 0.0000000000000000000, 0.0000000000000000000 ) ) ;
#190 = LENGTH_MEASURE_WITH_UNIT ( LENGTH_MEASURE( 0.02539999999999999900 ), #37 );
#191 = ORIENTED_EDGE ( 'NONE', *, *, #80, .T. ) ;
#192 =( LENGTH_UNIT ( ) NAMED_UNIT ( * ) SI_UNIT ( $, .METRE. ) );
#193 = STYLED_ITEM ( 'NONE', ( #245 ), #123 ) ;
#194 = ORIENTED_EDGE ( 'NONE', *, *, #65, .F. ) ;
#195 = ORIENTED_EDGE ( 'NONE', *, *, #151, .F. ) ;
#196 =( CONVERSION_BASED_UNIT ( 'INCH', #58 ) LENGTH_UNIT ( ) NAMED_UNIT ( #126 ) );
#197 = CARTESIAN_POINT ( 'NONE',  ( -0.2500000000000000000, 3.061616997868382400E-017, -11.96999999999998100 ) ) ;
#198 =( NAMED_UNIT ( * ) SI_UNIT ( $, .STERADIAN. ) SOLID_ANGLE_UNIT ( ) );
#199 = DIRECTION ( 'NONE',  ( 1.000000000000000000, 0.0000000000000000000, 0.0000000000000000000 ) ) ;
#200 = AXIS2_PLACEMENT_3D ( 'NONE', #229, #111, #246 ) ;
#201 = DIRECTION ( 'NONE',  ( -1.000000000000000000, 0.0000000000000000000, 0.0000000000000000000 ) ) ;
#202 = DIRECTION ( 'NONE',  ( 1.000000000000000000, 0.0000000000000000000, -0.0000000000000000000 ) ) ;
#203 = DIRECTION ( 'NONE',  ( 1.000000000000000000, 0.0000000000000000000, 0.0000000000000000000 ) ) ;
#204 = CONICAL_SURFACE ( 'NONE', #157, 0.2500000000000000000, 0.7853981633975069000 ) ;
#205 = DIMENSIONAL_EXPONENTS ( 1.000000000000000000, 0.0000000000000000000, 0.0000000000000000000, 0.0000000000000000000, 0.0000000000000000000, 0.0000000000000000000, 0.0000000000000000000 ) ;
#206 = ORIENTED_EDGE ( 'NONE', *, *, #13, .T. ) ;
#207 = CARTESIAN_POINT ( 'NONE',  ( -0.2500000000000000000, 0.0000000000000000000, 12.00000000000000200 ) ) ;
#208 = CARTESIAN_POINT ( 'NONE',  ( 0.0000000000000000000, 0.0000000000000000000, 11.97000000000001300 ) ) ;
#209 = CIRCLE ( 'NONE', #238, 0.2500000000000000000 ) ;
#210 = LINE ( 'NONE', #32, #49 ) ;
#211 = EDGE_LOOP ( 'NONE', ( #63, #12, #94, #44 ) ) ;
#212 = CIRCLE ( 'NONE', #84, 0.2200000000000123800 ) ;
#213 = CARTESIAN_POINT ( 'NONE',  ( 0.0000000000000000000, 0.0000000000000000000, -11.96999999999998100 ) ) ;
#214 = ORIENTED_EDGE ( 'NONE', *, *, #34, .F. ) ;
#215 = AXIS2_PLACEMENT_3D ( 'NONE', #171, #50, #189 ) ;
#216 = CIRCLE ( 'NONE', #215, 0.2200000000000123800 ) ;
#217 =( NAMED_UNIT ( * ) SI_UNIT ( $, .STERADIAN. ) SOLID_ANGLE_UNIT ( ) );
#218 = AXIS2_PLACEMENT_3D ( 'NONE', #66, #10, #20 ) ;
#219 = FACE_OUTER_BOUND ( 'NONE', #2, .T. ) ;
#220 = CARTESIAN_POINT ( 'NONE',  ( 0.0000000000000000000, 0.0000000000000000000, 12.00000000000000200 ) ) ;
#221 = DIRECTION ( 'NONE',  ( 0.0000000000000000000, 0.0000000000000000000, 1.000000000000000000 ) ) ;
#222 = EDGE_LOOP ( 'NONE', ( #241, #158, #169, #195 ) ) ;
#223 = ORIENTED_EDGE ( 'NONE', *, *, #23, .F. ) ;
#224 = LENGTH_MEASURE_WITH_UNIT ( LENGTH_MEASURE( 0.02539999999999999900 ), #149 );
#225 = ADVANCED_FACE ( 'NONE', ( #219 ), #184, .F. ) ;
#226 = VECTOR ( 'NONE', #41, 39.37007874015748100 ) ;
#227 = DIRECTION ( 'NONE',  ( 1.000000000000000000, 0.0000000000000000000, 0.0000000000000000000 ) ) ;
#228 = AXIS2_PLACEMENT_3D ( 'NONE', #45, #164, #70 ) ;
#229 = CARTESIAN_POINT ( 'NONE',  ( 0.0000000000000000000, 0.0000000000000000000, -12.00000000000000200 ) ) ;
#230 = SHAPE_DEFINITION_REPRESENTATION ( #162, #123 ) ;
#231 = DIRECTION ( 'NONE',  ( -0.0000000000000000000, -0.0000000000000000000, -1.000000000000000000 ) ) ;
#232 = LINE ( 'NONE', #119, #127 ) ;
#233 = DIRECTION ( 'NONE',  ( 0.0000000000000000000, 0.0000000000000000000, -1.000000000000000000 ) ) ;
#234 =( GEOMETRIC_REPRESENTATION_CONTEXT ( 3 ) GLOBAL_UNCERTAINTY_ASSIGNED_CONTEXT ( ( #78 ) ) GLOBAL_UNIT_ASSIGNED_CONTEXT ( ( #196, #82, #217 ) ) REPRESENTATION_CONTEXT ( 'NONE', 'WORKASPACE' ) );
#235 = APPLICATION_PROTOCOL_DEFINITION ( 'draft international standard', 'automotive_design', 1998, #3 ) ;
#236 = DIRECTION ( 'NONE',  ( 1.000000000000000000, 0.0000000000000000000, 0.0000000000000000000 ) ) ;
#237 = PRODUCT_CONTEXT ( 'NONE', #3, 'mechanical' ) ;
#238 = AXIS2_PLACEMENT_3D ( 'NONE', #208, #90, #227 ) ;
#239 = DIRECTION ( 'NONE',  ( 0.0000000000000000000, 0.0000000000000000000, -1.000000000000000000 ) ) ;
#240 = ADVANCED_FACE ( 'NONE', ( #60 ), #160, .T. ) ;
#241 = ORIENTED_EDGE ( 'NONE', *, *, #80, .F. ) ;
#242 = CARTESIAN_POINT ( 'NONE',  ( 0.2500000000000000000, 3.061616997868382400E-017, 11.97000000000001300 ) ) ;
#243 = AXIS2_PLACEMENT_3D ( 'NONE', #25, #139, #202 ) ;
#244 = EDGE_LOOP ( 'NONE', ( #118, #247, #115, #223 ) ) ;
#245 = PRESENTATION_STYLE_ASSIGNMENT (( #156 ) ) ;
#246 = DIRECTION ( 'NONE',  ( 1.000000000000000000, 0.0000000000000000000, 0.0000000000000000000 ) ) ;
#247 = ORIENTED_EDGE ( 'NONE', *, *, #47, .F. ) ;
#248 = FILL_AREA_STYLE ('',( #132 ) ) ;
#249 = AXIS2_PLACEMENT_3D ( 'NONE', #40, #186, #203 ) ;
ENDSEC;
END-ISO-10303-21;
