ISO-10303-21;
HEADER;
FILE_DESCRIPTION (( 'STEP AP214' ),
    '1' );
FILE_NAME ('RPSS08-36.step',
    '2017-08-09T17:45:59',
    ( '' ),
    ( '' ),
    'SwSTEP 2.0',
    'SolidWorks 2017',
    '' );
FILE_SCHEMA (( 'AUTOMOTIVE_DESIGN' ));
ENDSEC;

DATA;
#1 = FILL_AREA_STYLE_COLOUR ( '', #184 ) ;
#2 = APPLICATION_PROTOCOL_DEFINITION ( 'draft international standard', 'automotive_design', 1998, #117 ) ;
#3 = AXIS2_PLACEMENT_3D ( 'NONE', #128, #16, #150 ) ;
#4 = VERTEX_POINT ( 'NONE', #144 ) ;
#5 = VERTEX_POINT ( 'NONE', #27 ) ;
#6 = PRESENTATION_STYLE_ASSIGNMENT (( #223 ) ) ;
#7 = EDGE_CURVE ( 'NONE', #31, #5, #244, .T. ) ;
#8 = ORIENTED_EDGE ( 'NONE', *, *, #136, .F. ) ;
#9 = ORIENTED_EDGE ( 'NONE', *, *, #28, .F. ) ;
#10 = CARTESIAN_POINT ( 'NONE',  ( -0.2500000000000000000, 3.061616997868383000E-017, -17.96999999999999200 ) ) ;
#11 = DIRECTION ( 'NONE',  ( 1.000000000000000000, 0.0000000000000000000, 0.0000000000000000000 ) ) ;
#12 = VECTOR ( 'NONE', #106, 39.37007874015748900 ) ;
#13 = AXIS2_PLACEMENT_3D ( 'NONE', #56, #183, #78 ) ;
#14 = ORIENTED_EDGE ( 'NONE', *, *, #108, .F. ) ;
#15 = DIRECTION ( 'NONE',  ( 1.000000000000000000, 0.0000000000000000000, -0.0000000000000000000 ) ) ;
#16 = DIRECTION ( 'NONE',  ( 0.0000000000000000000, 0.0000000000000000000, 1.000000000000000000 ) ) ;
#17 = DIRECTION ( 'NONE',  ( -1.000000000000000000, 0.0000000000000000000, 0.0000000000000000000 ) ) ;
#18 = DIRECTION ( 'NONE',  ( -1.000000000000000000, 0.0000000000000000000, 0.0000000000000000000 ) ) ;
#19 = DIRECTION ( 'NONE',  ( 1.000000000000000000, 0.0000000000000000000, 0.0000000000000000000 ) ) ;
#20 =( NAMED_UNIT ( * ) SI_UNIT ( $, .STERADIAN. ) SOLID_ANGLE_UNIT ( ) );
#21 = EDGE_CURVE ( 'NONE', #139, #63, #159, .T. ) ;
#22 = SURFACE_SIDE_STYLE ('',( #231 ) ) ;
#23 = CIRCLE ( 'NONE', #172, 0.2500000000000000000 ) ;
#24 = ORIENTED_EDGE ( 'NONE', *, *, #7, .F. ) ;
#25 = UNCERTAINTY_MEASURE_WITH_UNIT (LENGTH_MEASURE( 1.000000000000000100E-005 ), #59, 'distance_accuracy_value', 'NONE');
#26 = FACE_OUTER_BOUND ( 'NONE', #68, .T. ) ;
#27 = CARTESIAN_POINT ( 'NONE',  ( -0.2199999999999971100, 0.0000000000000000000, 18.00000000000000000 ) ) ;
#28 = EDGE_CURVE ( 'NONE', #4, #63, #109, .T. ) ;
#29 = CIRCLE ( 'NONE', #13, 0.2199999999999927300 ) ;
#30 = DIRECTION ( 'NONE',  ( 0.7071067811865112700, 0.0000000000000000000, 0.7071067811865836500 ) ) ;
#31 = VERTEX_POINT ( 'NONE', #162 ) ;
#32 = PRODUCT ( 'RPSS08-36', 'RPSS08-36', '', ( #226 ) ) ;
#33 = CARTESIAN_POINT ( 'NONE',  ( 0.2199999999999927300, 0.0000000000000000000, -18.00000000000000000 ) ) ;
#34 = CARTESIAN_POINT ( 'NONE',  ( -0.2500000000000000000, 0.0000000000000000000, 17.97000000000000200 ) ) ;
#35 = AXIS2_PLACEMENT_3D ( 'NONE', #39, #209, #99 ) ;
#36 = DIRECTION ( 'NONE',  ( -0.0000000000000000000, -0.0000000000000000000, -1.000000000000000000 ) ) ;
#37 = PRODUCT_DEFINITION_SHAPE ( 'NONE', 'NONE',  #48 ) ;
#38 =( LENGTH_UNIT ( ) NAMED_UNIT ( * ) SI_UNIT ( $, .METRE. ) );
#39 = CARTESIAN_POINT ( 'NONE',  ( 0.0000000000000000000, 0.0000000000000000000, 0.0000000000000000000 ) ) ;
#40 = VECTOR ( 'NONE', #246, 39.37007874015748100 ) ;
#41 =( LENGTH_UNIT ( ) NAMED_UNIT ( * ) SI_UNIT ( $, .METRE. ) );
#42 = AXIS2_PLACEMENT_3D ( 'NONE', #151, #36, #169 ) ;
#43 = PRESENTATION_STYLE_ASSIGNMENT (( #153 ) ) ;
#44 = FACE_OUTER_BOUND ( 'NONE', #98, .T. ) ;
#45 = EDGE_CURVE ( 'NONE', #105, #4, #164, .T. ) ;
#46 = EDGE_LOOP ( 'NONE', ( #86, #154, #195, #111 ) ) ;
#47 = ORIENTED_EDGE ( 'NONE', *, *, #212, .T. ) ;
#48 = PRODUCT_DEFINITION ( 'UNKNOWN', '', #65, #207 ) ;
#49 = ADVANCED_FACE ( 'NONE', ( #210 ), #121, .T. ) ;
#50 = DIRECTION ( 'NONE',  ( 0.0000000000000000000, 0.0000000000000000000, 1.000000000000000000 ) ) ;
#51 = CARTESIAN_POINT ( 'NONE',  ( -0.2500000000000000000, 0.0000000000000000000, 18.00000000000000000 ) ) ;
#52 = AXIS2_PLACEMENT_3D ( 'NONE', #168, #205, #92 ) ;
#53 = EDGE_LOOP ( 'NONE', ( #103, #100 ) ) ;
#54 = CARTESIAN_POINT ( 'NONE',  ( -0.2199999999999927300, 2.877919977996235500E-017, -18.00000000000000000 ) ) ;
#55 = ORIENTED_EDGE ( 'NONE', *, *, #120, .F. ) ;
#56 = CARTESIAN_POINT ( 'NONE',  ( 0.0000000000000000000, 0.0000000000000000000, -18.00000000000000000 ) ) ;
#57 = DIRECTION ( 'NONE',  ( -0.0000000000000000000, -0.0000000000000000000, -1.000000000000000000 ) ) ;
#58 = FILL_AREA_STYLE_COLOUR ( '', #248 ) ;
#59 =( CONVERSION_BASED_UNIT ( 'INCH', #221 ) LENGTH_UNIT ( ) NAMED_UNIT ( #237 ) );
#60 = EDGE_LOOP ( 'NONE', ( #24, #148, #149, #137 ) ) ;
#61 = EDGE_CURVE ( 'NONE', #157, #4, #75, .T. ) ;
#62 =( NAMED_UNIT ( * ) PLANE_ANGLE_UNIT ( ) SI_UNIT ( $, .RADIAN. ) );
#63 = VERTEX_POINT ( 'NONE', #199 ) ;
#64 = ORIENTED_EDGE ( 'NONE', *, *, #21, .F. ) ;
#65 = PRODUCT_DEFINITION_FORMATION_WITH_SPECIFIED_SOURCE ( 'ANY', '', #32, .NOT_KNOWN. ) ;
#66 = LENGTH_MEASURE_WITH_UNIT ( LENGTH_MEASURE( 0.02539999999999999900 ), #115 );
#67 = FACE_OUTER_BOUND ( 'NONE', #60, .T. ) ;
#68 = EDGE_LOOP ( 'NONE', ( #229, #242 ) ) ;
#69 = AXIS2_PLACEMENT_3D ( 'NONE', #129, #112, #17 ) ;
#70 = UNCERTAINTY_MEASURE_WITH_UNIT (LENGTH_MEASURE( 1.000000000000000100E-005 ), #249, 'distance_accuracy_value', 'NONE');
#71 = ADVANCED_FACE ( 'NONE', ( #67 ), #173, .T. ) ;
#72 = CARTESIAN_POINT ( 'NONE',  ( 0.0000000000000000000, 0.0000000000000000000, 18.00000000000000000 ) ) ;
#73 = EDGE_CURVE ( 'NONE', #155, #63, #171, .T. ) ;
#74 = DIRECTION ( 'NONE',  ( -1.000000000000000000, 0.0000000000000000000, 0.0000000000000000000 ) ) ;
#75 = LINE ( 'NONE', #179, #118 ) ;
#76 = ORIENTED_EDGE ( 'NONE', *, *, #97, .T. ) ;
#77 = CARTESIAN_POINT ( 'NONE',  ( 0.0000000000000000000, 0.0000000000000000000, -17.96999999999999200 ) ) ;
#78 = DIRECTION ( 'NONE',  ( 1.000000000000000000, 0.0000000000000000000, 0.0000000000000000000 ) ) ;
#79 = PRODUCT_RELATED_PRODUCT_CATEGORY ( 'part', '', ( #32 ) ) ;
#80 = DIRECTION ( 'NONE',  ( 0.7071067811865885400, 8.659560562355435800E-017, -0.7071067811865064900 ) ) ;
#81 =( NAMED_UNIT ( * ) SI_UNIT ( $, .STERADIAN. ) SOLID_ANGLE_UNIT ( ) );
#82 = VECTOR ( 'NONE', #181, 39.37007874015748100 ) ;
#83 = AXIS2_PLACEMENT_3D ( 'NONE', #222, #206, #113 ) ;
#84 = LINE ( 'NONE', #131, #40 ) ;
#85 = EDGE_CURVE ( 'NONE', #157, #155, #23, .T. ) ;
#86 = ORIENTED_EDGE ( 'NONE', *, *, #224, .T. ) ;
#87 = ADVANCED_FACE ( 'NONE', ( #26 ), #165, .T. ) ;
#88 = SURFACE_STYLE_FILL_AREA ( #208 ) ;
#89 = CARTESIAN_POINT ( 'NONE',  ( 0.0000000000000000000, 0.0000000000000000000, 18.00000000000000000 ) ) ;
#90 = AXIS2_PLACEMENT_3D ( 'NONE', #93, #186, #114 ) ;
#91 = DIRECTION ( 'NONE',  ( 1.000000000000000000, 0.0000000000000000000, 0.0000000000000000000 ) ) ;
#92 = DIRECTION ( 'NONE',  ( 1.000000000000000000, 0.0000000000000000000, -0.0000000000000000000 ) ) ;
#93 = CARTESIAN_POINT ( 'NONE',  ( 0.0000000000000000000, 0.0000000000000000000, -17.96999999999999200 ) ) ;
#94 = SURFACE_SIDE_STYLE ('',( #88 ) ) ;
#95 = CONICAL_SURFACE ( 'NONE', #83, 0.2500000000000000000, 0.7853981633973971000 ) ;
#96 = APPLICATION_PROTOCOL_DEFINITION ( 'draft international standard', 'automotive_design', 1998, #116 ) ;
#97 = EDGE_CURVE ( 'NONE', #63, #4, #225, .T. ) ;
#98 = EDGE_LOOP ( 'NONE', ( #8, #160, #9, #101 ) ) ;
#99 = DIRECTION ( 'NONE',  ( 1.000000000000000000, 0.0000000000000000000, 0.0000000000000000000 ) ) ;
#100 = ORIENTED_EDGE ( 'NONE', *, *, #136, .T. ) ;
#101 = ORIENTED_EDGE ( 'NONE', *, *, #45, .F. ) ;
#102 = VECTOR ( 'NONE', #80, 39.37007874015748100 ) ;
#103 = ORIENTED_EDGE ( 'NONE', *, *, #120, .T. ) ;
#104 = AXIS2_PLACEMENT_3D ( 'NONE', #247, #132, #19 ) ;
#105 = VERTEX_POINT ( 'NONE', #33 ) ;
#106 = DIRECTION ( 'NONE',  ( -0.7071067811865112700, 8.659560562354489100E-017, 0.7071067811865836500 ) ) ;
#107 = CARTESIAN_POINT ( 'NONE',  ( 0.2500000000000000000, 0.0000000000000000000, -17.96999999999999200 ) ) ;
#108 = EDGE_CURVE ( 'NONE', #5, #31, #124, .T. ) ;
#109 = CIRCLE ( 'NONE', #158, 0.2500000000000000000 ) ;
#110 = DIRECTION ( 'NONE',  ( 0.0000000000000000000, 0.0000000000000000000, -1.000000000000000000 ) ) ;
#111 = ORIENTED_EDGE ( 'NONE', *, *, #73, .F. ) ;
#112 = DIRECTION ( 'NONE',  ( 0.0000000000000000000, 0.0000000000000000000, -1.000000000000000000 ) ) ;
#113 = DIRECTION ( 'NONE',  ( 1.000000000000000000, 0.0000000000000000000, 0.0000000000000000000 ) ) ;
#114 = DIRECTION ( 'NONE',  ( 1.000000000000000000, 0.0000000000000000000, 0.0000000000000000000 ) ) ;
#115 =( LENGTH_UNIT ( ) NAMED_UNIT ( * ) SI_UNIT ( $, .METRE. ) );
#116 = APPLICATION_CONTEXT ( 'automotive_design' ) ;
#117 = APPLICATION_CONTEXT ( 'automotive_design' ) ;
#118 = VECTOR ( 'NONE', #163, 39.37007874015748100 ) ;
#119 = AXIS2_PLACEMENT_3D ( 'NONE', #152, #57, #18 ) ;
#120 = EDGE_CURVE ( 'NONE', #105, #139, #29, .T. ) ;
#121 = CYLINDRICAL_SURFACE ( 'NONE', #194, 0.2500000000000000000 ) ;
#122 = ADVANCED_FACE ( 'NONE', ( #217 ), #182, .F. ) ;
#123 = DIRECTION ( 'NONE',  ( -0.0000000000000000000, -0.0000000000000000000, 1.000000000000000000 ) ) ;
#124 = CIRCLE ( 'NONE', #3, 0.2199999999999971100 ) ;
#125 = DIRECTION ( 'NONE',  ( 0.0000000000000000000, 0.0000000000000000000, -1.000000000000000000 ) ) ;
#126 = DIRECTION ( 'NONE',  ( 0.0000000000000000000, 0.0000000000000000000, 1.000000000000000000 ) ) ;
#127 = STYLED_ITEM ( 'NONE', ( #6 ), #240 ) ;
#128 = CARTESIAN_POINT ( 'NONE',  ( 0.0000000000000000000, 0.0000000000000000000, 18.00000000000000000 ) ) ;
#129 = CARTESIAN_POINT ( 'NONE',  ( 0.0000000000000000000, 0.0000000000000000000, 18.00000000000000000 ) ) ;
#130 = ORIENTED_EDGE ( 'NONE', *, *, #97, .F. ) ;
#131 = CARTESIAN_POINT ( 'NONE',  ( -0.2199999999999971100, 0.0000000000000000000, 18.00000000000000000 ) ) ;
#132 = DIRECTION ( 'NONE',  ( 0.0000000000000000000, 0.0000000000000000000, -1.000000000000000000 ) ) ;
#133 =( NAMED_UNIT ( * ) PLANE_ANGLE_UNIT ( ) SI_UNIT ( $, .RADIAN. ) );
#134 = FACE_OUTER_BOUND ( 'NONE', #46, .T. ) ;
#135 = FILL_AREA_STYLE ('',( #1 ) ) ;
#136 = EDGE_CURVE ( 'NONE', #139, #105, #178, .T. ) ;
#137 = ORIENTED_EDGE ( 'NONE', *, *, #212, .F. ) ;
#138 = FACE_OUTER_BOUND ( 'NONE', #196, .T. ) ;
#139 = VERTEX_POINT ( 'NONE', #54 ) ;
#140 = PRESENTATION_LAYER_ASSIGNMENT (  '', '', ( #127 ) ) ;
#141 = EDGE_LOOP ( 'NONE', ( #200, #211, #202, #76 ) ) ;
#142 = ADVANCED_FACE ( 'NONE', ( #228 ), #235, .T. ) ;
#143 = CIRCLE ( 'NONE', #104, 0.2500000000000000000 ) ;
#144 = CARTESIAN_POINT ( 'NONE',  ( 0.2500000000000000000, 3.061616997868383000E-017, -17.96999999999999200 ) ) ;
#145 = CLOSED_SHELL ( 'NONE', ( #71, #232, #215, #49, #87, #122, #161, #142 ) ) ;
#146 = DIRECTION ( 'NONE',  ( -1.000000000000000000, 0.0000000000000000000, 0.0000000000000000000 ) ) ;
#147 = AXIS2_PLACEMENT_3D ( 'NONE', #233, #50, #177 ) ;
#148 = ORIENTED_EDGE ( 'NONE', *, *, #236, .T. ) ;
#149 = ORIENTED_EDGE ( 'NONE', *, *, #224, .F. ) ;
#150 = DIRECTION ( 'NONE',  ( 1.000000000000000000, 0.0000000000000000000, 0.0000000000000000000 ) ) ;
#151 = CARTESIAN_POINT ( 'NONE',  ( 0.0000000000000000000, 0.0000000000000000000, -18.00000000000000000 ) ) ;
#152 = CARTESIAN_POINT ( 'NONE',  ( 0.0000000000000000000, 0.0000000000000000000, 18.00000000000000000 ) ) ;
#153 = SURFACE_STYLE_USAGE ( .BOTH. , #22 ) ;
#154 = ORIENTED_EDGE ( 'NONE', *, *, #61, .T. ) ;
#155 = VERTEX_POINT ( 'NONE', #34 ) ;
#156 = MECHANICAL_DESIGN_GEOMETRIC_PRESENTATION_REPRESENTATION (  '', ( #127 ), #167 ) ;
#157 = VERTEX_POINT ( 'NONE', #185 ) ;
#158 = AXIS2_PLACEMENT_3D ( 'NONE', #238, #123, #11 ) ;
#159 = LINE ( 'NONE', #10, #12 ) ;
#160 = ORIENTED_EDGE ( 'NONE', *, *, #21, .T. ) ;
#161 = ADVANCED_FACE ( 'NONE', ( #138 ), #95, .T. ) ;
#162 = CARTESIAN_POINT ( 'NONE',  ( 0.2199999999999971100, 2.877919977996262000E-017, 18.00000000000000000 ) ) ;
#163 = DIRECTION ( 'NONE',  ( -0.0000000000000000000, -0.0000000000000000000, -1.000000000000000000 ) ) ;
#164 = LINE ( 'NONE', #107, #213 ) ;
#165 = PLANE ( 'NONE',  #230 ) ;
#166 = ORIENTED_EDGE ( 'NONE', *, *, #45, .T. ) ;
#167 =( GEOMETRIC_REPRESENTATION_CONTEXT ( 3 ) GLOBAL_UNCERTAINTY_ASSIGNED_CONTEXT ( ( #70 ) ) GLOBAL_UNIT_ASSIGNED_CONTEXT ( ( #249, #133, #20 ) ) REPRESENTATION_CONTEXT ( 'NONE', 'WORKASPACE' ) );
#168 = CARTESIAN_POINT ( 'NONE',  ( 0.0000000000000000000, 0.0000000000000000000, -18.00000000000000000 ) ) ;
#169 = DIRECTION ( 'NONE',  ( 1.000000000000000000, 0.0000000000000000000, 0.0000000000000000000 ) ) ;
#170 =( CONVERSION_BASED_UNIT ( 'INCH', #192 ) LENGTH_UNIT ( ) NAMED_UNIT ( #197 ) );
#171 = LINE ( 'NONE', #51, #82 ) ;
#172 = AXIS2_PLACEMENT_3D ( 'NONE', #219, #110, #241 ) ;
#173 = CONICAL_SURFACE ( 'NONE', #180, 0.2199999999999971100, 0.7853981633975063400 ) ;
#174 =( GEOMETRIC_REPRESENTATION_CONTEXT ( 3 ) GLOBAL_UNCERTAINTY_ASSIGNED_CONTEXT ( ( #25 ) ) GLOBAL_UNIT_ASSIGNED_CONTEXT ( ( #59, #189, #81 ) ) REPRESENTATION_CONTEXT ( 'NONE', 'WORKASPACE' ) );
#175 = UNCERTAINTY_MEASURE_WITH_UNIT (LENGTH_MEASURE( 1.000000000000000100E-005 ), #170, 'distance_accuracy_value', 'NONE');
#176 = DIMENSIONAL_EXPONENTS ( 1.000000000000000000, 0.0000000000000000000, 0.0000000000000000000, 0.0000000000000000000, 0.0000000000000000000, 0.0000000000000000000, 0.0000000000000000000 ) ;
#177 = DIRECTION ( 'NONE',  ( 1.000000000000000000, 0.0000000000000000000, 0.0000000000000000000 ) ) ;
#178 = CIRCLE ( 'NONE', #42, 0.2199999999999927300 ) ;
#179 = CARTESIAN_POINT ( 'NONE',  ( 0.2500000000000000000, 3.061616997868383000E-017, 18.00000000000000000 ) ) ;
#180 = AXIS2_PLACEMENT_3D ( 'NONE', #239, #125, #74 ) ;
#181 = DIRECTION ( 'NONE',  ( -0.0000000000000000000, -0.0000000000000000000, -1.000000000000000000 ) ) ;
#182 = PLANE ( 'NONE',  #52 ) ;
#183 = DIRECTION ( 'NONE',  ( -0.0000000000000000000, -0.0000000000000000000, -1.000000000000000000 ) ) ;
#184 = COLOUR_RGB ( '',0.7921568627450980000, 0.8196078431372548800, 0.9333333333333333500 ) ;
#185 = CARTESIAN_POINT ( 'NONE',  ( 0.2500000000000000000, 3.061616997868383000E-017, 17.97000000000000200 ) ) ;
#186 = DIRECTION ( 'NONE',  ( -0.0000000000000000000, -0.0000000000000000000, 1.000000000000000000 ) ) ;
#187 = CARTESIAN_POINT ( 'NONE',  ( 0.2199999999999971100, 2.694222958124141500E-017, 18.00000000000000000 ) ) ;
#188 = LINE ( 'NONE', #187, #102 ) ;
#189 =( NAMED_UNIT ( * ) PLANE_ANGLE_UNIT ( ) SI_UNIT ( $, .RADIAN. ) );
#190 =( NAMED_UNIT ( * ) SI_UNIT ( $, .STERADIAN. ) SOLID_ANGLE_UNIT ( ) );
#191 = ORIENTED_EDGE ( 'NONE', *, *, #236, .F. ) ;
#192 = LENGTH_MEASURE_WITH_UNIT ( LENGTH_MEASURE( 0.02539999999999999900 ), #41 );
#193 = CYLINDRICAL_SURFACE ( 'NONE', #119, 0.2500000000000000000 ) ;
#194 = AXIS2_PLACEMENT_3D ( 'NONE', #72, #216, #146 ) ;
#195 = ORIENTED_EDGE ( 'NONE', *, *, #28, .T. ) ;
#196 = EDGE_LOOP ( 'NONE', ( #64, #55, #166, #130 ) ) ;
#197 = DIMENSIONAL_EXPONENTS ( 1.000000000000000000, 0.0000000000000000000, 0.0000000000000000000, 0.0000000000000000000, 0.0000000000000000000, 0.0000000000000000000, 0.0000000000000000000 ) ;
#198 = CONICAL_SURFACE ( 'NONE', #90, 0.2500000000000000000, 0.7853981633973971000 ) ;
#199 = CARTESIAN_POINT ( 'NONE',  ( -0.2500000000000000000, 0.0000000000000000000, -17.96999999999999200 ) ) ;
#200 = ORIENTED_EDGE ( 'NONE', *, *, #61, .F. ) ;
#201 = ORIENTED_EDGE ( 'NONE', *, *, #85, .F. ) ;
#202 = ORIENTED_EDGE ( 'NONE', *, *, #73, .T. ) ;
#203 = DIRECTION ( 'NONE',  ( -0.0000000000000000000, -0.0000000000000000000, 1.000000000000000000 ) ) ;
#204 = STYLED_ITEM ( 'NONE', ( #43 ), #220 ) ;
#205 = DIRECTION ( 'NONE',  ( 0.0000000000000000000, 0.0000000000000000000, 1.000000000000000000 ) ) ;
#206 = DIRECTION ( 'NONE',  ( -0.0000000000000000000, -0.0000000000000000000, 1.000000000000000000 ) ) ;
#207 = PRODUCT_DEFINITION_CONTEXT ( 'detailed design', #117, 'design' ) ;
#208 = FILL_AREA_STYLE ('',( #58 ) ) ;
#209 = DIRECTION ( 'NONE',  ( 0.0000000000000000000, 0.0000000000000000000, 1.000000000000000000 ) ) ;
#210 = FACE_OUTER_BOUND ( 'NONE', #141, .T. ) ;
#211 = ORIENTED_EDGE ( 'NONE', *, *, #85, .T. ) ;
#212 = EDGE_CURVE ( 'NONE', #5, #155, #84, .T. ) ;
#213 = VECTOR ( 'NONE', #30, 39.37007874015748900 ) ;
#214 = PRESENTATION_LAYER_ASSIGNMENT (  '', '', ( #204 ) ) ;
#215 = ADVANCED_FACE ( 'NONE', ( #134 ), #193, .T. ) ;
#216 = DIRECTION ( 'NONE',  ( -0.0000000000000000000, -0.0000000000000000000, -1.000000000000000000 ) ) ;
#217 = FACE_OUTER_BOUND ( 'NONE', #53, .T. ) ;
#218 = AXIS2_PLACEMENT_3D ( 'NONE', #77, #203, #91 ) ;
#219 = CARTESIAN_POINT ( 'NONE',  ( 0.0000000000000000000, 0.0000000000000000000, 17.97000000000000200 ) ) ;
#220 = ADVANCED_BREP_SHAPE_REPRESENTATION ( 'RPSS08-36', ( #240, #35 ), #174 ) ;
#221 = LENGTH_MEASURE_WITH_UNIT ( LENGTH_MEASURE( 0.02539999999999999900 ), #38 );
#222 = CARTESIAN_POINT ( 'NONE',  ( 0.0000000000000000000, 0.0000000000000000000, -17.96999999999999200 ) ) ;
#223 = SURFACE_STYLE_USAGE ( .BOTH. , #94 ) ;
#224 = EDGE_CURVE ( 'NONE', #155, #157, #143, .T. ) ;
#225 = CIRCLE ( 'NONE', #218, 0.2500000000000000000 ) ;
#226 = PRODUCT_CONTEXT ( 'NONE', #116, 'mechanical' ) ;
#227 = MECHANICAL_DESIGN_GEOMETRIC_PRESENTATION_REPRESENTATION (  '', ( #204 ), #245 ) ;
#228 = FACE_OUTER_BOUND ( 'NONE', #243, .T. ) ;
#229 = ORIENTED_EDGE ( 'NONE', *, *, #108, .T. ) ;
#230 = AXIS2_PLACEMENT_3D ( 'NONE', #89, #126, #15 ) ;
#231 = SURFACE_STYLE_FILL_AREA ( #135 ) ;
#232 = ADVANCED_FACE ( 'NONE', ( #44 ), #198, .T. ) ;
#233 = CARTESIAN_POINT ( 'NONE',  ( 0.0000000000000000000, 0.0000000000000000000, 18.00000000000000000 ) ) ;
#234 = SHAPE_DEFINITION_REPRESENTATION ( #37, #220 ) ;
#235 = CONICAL_SURFACE ( 'NONE', #69, 0.2199999999999971100, 0.7853981633975063400 ) ;
#236 = EDGE_CURVE ( 'NONE', #31, #157, #188, .T. ) ;
#237 = DIMENSIONAL_EXPONENTS ( 1.000000000000000000, 0.0000000000000000000, 0.0000000000000000000, 0.0000000000000000000, 0.0000000000000000000, 0.0000000000000000000, 0.0000000000000000000 ) ;
#238 = CARTESIAN_POINT ( 'NONE',  ( 0.0000000000000000000, 0.0000000000000000000, -17.96999999999999200 ) ) ;
#239 = CARTESIAN_POINT ( 'NONE',  ( 0.0000000000000000000, 0.0000000000000000000, 18.00000000000000000 ) ) ;
#240 = MANIFOLD_SOLID_BREP ( 'Chamfer1', #145 ) ;
#241 = DIRECTION ( 'NONE',  ( 1.000000000000000000, 0.0000000000000000000, 0.0000000000000000000 ) ) ;
#242 = ORIENTED_EDGE ( 'NONE', *, *, #7, .T. ) ;
#243 = EDGE_LOOP ( 'NONE', ( #191, #14, #47, #201 ) ) ;
#244 = CIRCLE ( 'NONE', #147, 0.2199999999999971100 ) ;
#245 =( GEOMETRIC_REPRESENTATION_CONTEXT ( 3 ) GLOBAL_UNCERTAINTY_ASSIGNED_CONTEXT ( ( #175 ) ) GLOBAL_UNIT_ASSIGNED_CONTEXT ( ( #170, #62, #190 ) ) REPRESENTATION_CONTEXT ( 'NONE', 'WORKASPACE' ) );
#246 = DIRECTION ( 'NONE',  ( -0.7071067811865885400, 0.0000000000000000000, -0.7071067811865064900 ) ) ;
#247 = CARTESIAN_POINT ( 'NONE',  ( 0.0000000000000000000, 0.0000000000000000000, 17.97000000000000200 ) ) ;
#248 = COLOUR_RGB ( '',0.7921568627450980000, 0.8196078431372548800, 0.9333333333333333500 ) ;
#249 =( CONVERSION_BASED_UNIT ( 'INCH', #66 ) LENGTH_UNIT ( ) NAMED_UNIT ( #176 ) );
ENDSEC;
END-ISO-10303-21;
