ISO-10303-21;
HEADER;
FILE_DESCRIPTION (( 'STEP AP214' ),
    '1' );
FILE_NAME ('RPSS10-12.step',
    '2017-08-09T17:46:16',
    ( '' ),
    ( '' ),
    'SwSTEP 2.0',
    'SolidWorks 2017',
    '' );
FILE_SCHEMA (( 'AUTOMOTIVE_DESIGN' ));
ENDSEC;

DATA;
#1 = CARTESIAN_POINT ( 'NONE',  ( 0.2724999999999889200, 0.0000000000000000000, -6.000000000000000900 ) ) ;
#2 = VECTOR ( 'NONE', #110, 39.37007874015748900 ) ;
#3 = DIRECTION ( 'NONE',  ( -0.0000000000000000000, -0.0000000000000000000, -1.000000000000000000 ) ) ;
#4 = CARTESIAN_POINT ( 'NONE',  ( 0.0000000000000000000, 0.0000000000000000000, 6.000000000000000900 ) ) ;
#5 =( CONVERSION_BASED_UNIT ( 'INCH', #40 ) LENGTH_UNIT ( ) NAMED_UNIT ( #114 ) );
#6 = PRODUCT_RELATED_PRODUCT_CATEGORY ( 'part', '', ( #37 ) ) ;
#7 = FACE_OUTER_BOUND ( 'NONE', #95, .T. ) ;
#8 = ORIENTED_EDGE ( 'NONE', *, *, #31, .T. ) ;
#9 = DIRECTION ( 'NONE',  ( 1.000000000000000000, 0.0000000000000000000, 0.0000000000000000000 ) ) ;
#10 = SURFACE_STYLE_USAGE ( .BOTH. , #130 ) ;
#11 = CYLINDRICAL_SURFACE ( 'NONE', #133, 0.3125000000000000000 ) ;
#12 = ADVANCED_FACE ( 'NONE', ( #213 ), #201, .T. ) ;
#13 = AXIS2_PLACEMENT_3D ( 'NONE', #60, #161, #180 ) ;
#14 = CONICAL_SURFACE ( 'NONE', #123, 0.3125000000000000000, 0.7853981633974423900 ) ;
#15 = EDGE_CURVE ( 'NONE', #116, #190, #153, .T. ) ;
#16 = LENGTH_MEASURE_WITH_UNIT ( LENGTH_MEASURE( 0.02539999999999999900 ), #165 );
#17 = FACE_OUTER_BOUND ( 'NONE', #135, .T. ) ;
#18 = ORIENTED_EDGE ( 'NONE', *, *, #195, .T. ) ;
#19 = CARTESIAN_POINT ( 'NONE',  ( -0.3125000000000000000, 3.827021247335478900E-017, -5.959999999999989300 ) ) ;
#20 = DIRECTION ( 'NONE',  ( 0.0000000000000000000, 0.0000000000000000000, -1.000000000000000000 ) ) ;
#21 = ORIENTED_EDGE ( 'NONE', *, *, #52, .F. ) ;
#22 = PLANE ( 'NONE',  #171 ) ;
#23 = DIRECTION ( 'NONE',  ( 0.0000000000000000000, 0.0000000000000000000, 1.000000000000000000 ) ) ;
#24 = STYLED_ITEM ( 'NONE', ( #229 ), #168 ) ;
#25 = DIRECTION ( 'NONE',  ( -1.000000000000000000, 0.0000000000000000000, 0.0000000000000000000 ) ) ;
#26 = FACE_OUTER_BOUND ( 'NONE', #90, .T. ) ;
#27 =( NAMED_UNIT ( * ) SI_UNIT ( $, .STERADIAN. ) SOLID_ANGLE_UNIT ( ) );
#28 = VERTEX_POINT ( 'NONE', #206 ) ;
#29 = SURFACE_STYLE_FILL_AREA ( #236 ) ;
#30 =( CONVERSION_BASED_UNIT ( 'INCH', #139 ) LENGTH_UNIT ( ) NAMED_UNIT ( #240 ) );
#31 = EDGE_CURVE ( 'NONE', #86, #190, #50, .T. ) ;
#32 = CONICAL_SURFACE ( 'NONE', #243, 0.2725000000000064000, 0.7853981633974423900 ) ;
#33 = VERTEX_POINT ( 'NONE', #155 ) ;
#34 = PRESENTATION_LAYER_ASSIGNMENT (  '', '', ( #24 ) ) ;
#35 = ORIENTED_EDGE ( 'NONE', *, *, #195, .F. ) ;
#36 = CARTESIAN_POINT ( 'NONE',  ( 0.0000000000000000000, 0.0000000000000000000, -5.959999999999989300 ) ) ;
#37 = PRODUCT ( 'RPSS10-12', 'RPSS10-12', '', ( #92 ) ) ;
#38 = DIRECTION ( 'NONE',  ( 1.000000000000000000, 0.0000000000000000000, -0.0000000000000000000 ) ) ;
#39 = EDGE_CURVE ( 'NONE', #187, #28, #244, .T. ) ;
#40 = LENGTH_MEASURE_WITH_UNIT ( LENGTH_MEASURE( 0.02539999999999999900 ), #127 );
#41 = DIRECTION ( 'NONE',  ( -0.0000000000000000000, -0.0000000000000000000, -1.000000000000000000 ) ) ;
#42 = CARTESIAN_POINT ( 'NONE',  ( -0.3125000000000000000, 0.0000000000000000000, -5.959999999999989300 ) ) ;
#43 = DIRECTION ( 'NONE',  ( -0.0000000000000000000, -0.0000000000000000000, -1.000000000000000000 ) ) ;
#44 = ORIENTED_EDGE ( 'NONE', *, *, #70, .T. ) ;
#45 = EDGE_LOOP ( 'NONE', ( #189, #154 ) ) ;
#46 =( CONVERSION_BASED_UNIT ( 'INCH', #16 ) LENGTH_UNIT ( ) NAMED_UNIT ( #132 ) );
#47 =( NAMED_UNIT ( * ) SI_UNIT ( $, .STERADIAN. ) SOLID_ANGLE_UNIT ( ) );
#48 = ADVANCED_FACE ( 'NONE', ( #7 ), #14, .T. ) ;
#49 = MECHANICAL_DESIGN_GEOMETRIC_PRESENTATION_REPRESENTATION (  '', ( #24 ), #59 ) ;
#50 = LINE ( 'NONE', #19, #197 ) ;
#51 = ORIENTED_EDGE ( 'NONE', *, *, #15, .T. ) ;
#52 = EDGE_CURVE ( 'NONE', #33, #205, #204, .T. ) ;
#53 = CYLINDRICAL_SURFACE ( 'NONE', #117, 0.3125000000000000000 ) ;
#54 = VECTOR ( 'NONE', #81, 39.37007874015748900 ) ;
#55 = ORIENTED_EDGE ( 'NONE', *, *, #74, .T. ) ;
#56 = DIRECTION ( 'NONE',  ( 1.000000000000000000, 0.0000000000000000000, 0.0000000000000000000 ) ) ;
#57 = DIRECTION ( 'NONE',  ( 0.7071067811865432400, 8.659560562354882300E-017, -0.7071067811865516800 ) ) ;
#58 = CARTESIAN_POINT ( 'NONE',  ( 0.0000000000000000000, 0.0000000000000000000, 6.000000000000000900 ) ) ;
#59 =( GEOMETRIC_REPRESENTATION_CONTEXT ( 3 ) GLOBAL_UNCERTAINTY_ASSIGNED_CONTEXT ( ( #120 ) ) GLOBAL_UNIT_ASSIGNED_CONTEXT ( ( #5, #144, #27 ) ) REPRESENTATION_CONTEXT ( 'NONE', 'WORKASPACE' ) );
#60 = CARTESIAN_POINT ( 'NONE',  ( 0.0000000000000000000, 0.0000000000000000000, -5.959999999999989300 ) ) ;
#61 = CIRCLE ( 'NONE', #159, 0.3125000000000000000 ) ;
#62 = ORIENTED_EDGE ( 'NONE', *, *, #68, .T. ) ;
#63 = CARTESIAN_POINT ( 'NONE',  ( -0.3125000000000000000, 0.0000000000000000000, 5.960000000000006200 ) ) ;
#64 = CARTESIAN_POINT ( 'NONE',  ( 0.0000000000000000000, 0.0000000000000000000, 6.000000000000000900 ) ) ;
#65 =( NAMED_UNIT ( * ) SI_UNIT ( $, .STERADIAN. ) SOLID_ANGLE_UNIT ( ) );
#66 = DIRECTION ( 'NONE',  ( 0.0000000000000000000, 0.0000000000000000000, 1.000000000000000000 ) ) ;
#67 = SHAPE_DEFINITION_REPRESENTATION ( #177, #203 ) ;
#68 = EDGE_CURVE ( 'NONE', #205, #187, #162, .T. ) ;
#69 = ADVANCED_FACE ( 'NONE', ( #115 ), #22, .T. ) ;
#70 = EDGE_CURVE ( 'NONE', #190, #116, #61, .T. ) ;
#71 = LINE ( 'NONE', #234, #2 ) ;
#72 = CLOSED_SHELL ( 'NONE', ( #149, #167, #238, #215, #69, #93, #48, #12 ) ) ;
#73 = EDGE_LOOP ( 'NONE', ( #184, #18, #151, #44 ) ) ;
#74 = EDGE_CURVE ( 'NONE', #33, #28, #150, .T. ) ;
#75 = AXIS2_PLACEMENT_3D ( 'NONE', #233, #128, #9 ) ;
#76 = FACE_OUTER_BOUND ( 'NONE', #73, .T. ) ;
#77 = DIRECTION ( 'NONE',  ( 0.0000000000000000000, 0.0000000000000000000, -1.000000000000000000 ) ) ;
#78 = DIRECTION ( 'NONE',  ( -0.7071067811865432400, 8.659560562354879900E-017, 0.7071067811865516800 ) ) ;
#79 = VERTEX_POINT ( 'NONE', #1 ) ;
#80 = PRESENTATION_STYLE_ASSIGNMENT (( #10 ) ) ;
#81 = DIRECTION ( 'NONE',  ( -0.7071067811865432400, 0.0000000000000000000, -0.7071067811865516800 ) ) ;
#82 = AXIS2_PLACEMENT_3D ( 'NONE', #246, #77, #119 ) ;
#83 = DIRECTION ( 'NONE',  ( 1.000000000000000000, 0.0000000000000000000, 0.0000000000000000000 ) ) ;
#84 = EDGE_CURVE ( 'NONE', #205, #33, #118, .T. ) ;
#85 = VECTOR ( 'NONE', #43, 39.37007874015748100 ) ;
#86 = VERTEX_POINT ( 'NONE', #191 ) ;
#87 = FILL_AREA_STYLE_COLOUR ( '', #179 ) ;
#88 = DIRECTION ( 'NONE',  ( -1.000000000000000000, 0.0000000000000000000, 0.0000000000000000000 ) ) ;
#89 = EDGE_CURVE ( 'NONE', #79, #86, #212, .T. ) ;
#90 = EDGE_LOOP ( 'NONE', ( #21, #55, #231, #235 ) ) ;
#91 = APPLICATION_PROTOCOL_DEFINITION ( 'draft international standard', 'automotive_design', 1998, #111 ) ;
#92 = PRODUCT_CONTEXT ( 'NONE', #111, 'mechanical' ) ;
#93 = ADVANCED_FACE ( 'NONE', ( #108 ), #176, .F. ) ;
#94 =( GEOMETRIC_REPRESENTATION_CONTEXT ( 3 ) GLOBAL_UNCERTAINTY_ASSIGNED_CONTEXT ( ( #164 ) ) GLOBAL_UNIT_ASSIGNED_CONTEXT ( ( #46, #183, #65 ) ) REPRESENTATION_CONTEXT ( 'NONE', 'WORKASPACE' ) );
#95 = EDGE_LOOP ( 'NONE', ( #242, #131, #145, #188 ) ) ;
#96 = AXIS2_PLACEMENT_3D ( 'NONE', #36, #173, #56 ) ;
#97 = ORIENTED_EDGE ( 'NONE', *, *, #249, .F. ) ;
#98 = EDGE_LOOP ( 'NONE', ( #245, #163 ) ) ;
#99 = EDGE_CURVE ( 'NONE', #86, #79, #126, .T. ) ;
#100 = DIRECTION ( 'NONE',  ( -0.0000000000000000000, -0.0000000000000000000, 1.000000000000000000 ) ) ;
#101 = CARTESIAN_POINT ( 'NONE',  ( 0.0000000000000000000, 0.0000000000000000000, 6.000000000000000900 ) ) ;
#102 = CARTESIAN_POINT ( 'NONE',  ( 0.0000000000000000000, 0.0000000000000000000, -5.959999999999989300 ) ) ;
#103 = PRODUCT_DEFINITION_CONTEXT ( 'detailed design', #214, 'design' ) ;
#104 = DIRECTION ( 'NONE',  ( -0.0000000000000000000, -0.0000000000000000000, -1.000000000000000000 ) ) ;
#105 = EDGE_CURVE ( 'NONE', #187, #190, #172, .T. ) ;
#106 = SURFACE_SIDE_STYLE ('',( #186 ) ) ;
#107 = DIRECTION ( 'NONE',  ( -0.0000000000000000000, -0.0000000000000000000, -1.000000000000000000 ) ) ;
#108 = FACE_OUTER_BOUND ( 'NONE', #98, .T. ) ;
#109 = ORIENTED_EDGE ( 'NONE', *, *, #74, .F. ) ;
#110 = DIRECTION ( 'NONE',  ( 0.7071067811865432400, 0.0000000000000000000, 0.7071067811865516800 ) ) ;
#111 = APPLICATION_CONTEXT ( 'automotive_design' ) ;
#112 = APPLICATION_PROTOCOL_DEFINITION ( 'draft international standard', 'automotive_design', 1998, #214 ) ;
#113 = AXIS2_PLACEMENT_3D ( 'NONE', #140, #20, #156 ) ;
#114 = DIMENSIONAL_EXPONENTS ( 1.000000000000000000, 0.0000000000000000000, 0.0000000000000000000, 0.0000000000000000000, 0.0000000000000000000, 0.0000000000000000000, 0.0000000000000000000 ) ;
#115 = FACE_OUTER_BOUND ( 'NONE', #45, .T. ) ;
#116 = VERTEX_POINT ( 'NONE', #125 ) ;
#117 = AXIS2_PLACEMENT_3D ( 'NONE', #196, #41, #88 ) ;
#118 = CIRCLE ( 'NONE', #185, 0.2725000000000064000 ) ;
#119 = DIRECTION ( 'NONE',  ( -1.000000000000000000, 0.0000000000000000000, 0.0000000000000000000 ) ) ;
#120 = UNCERTAINTY_MEASURE_WITH_UNIT (LENGTH_MEASURE( 1.000000000000000100E-005 ), #5, 'distance_accuracy_value', 'NONE');
#121 = DIRECTION ( 'NONE',  ( 1.000000000000000000, 0.0000000000000000000, 0.0000000000000000000 ) ) ;
#122 = DIRECTION ( 'NONE',  ( 1.000000000000000000, 0.0000000000000000000, 0.0000000000000000000 ) ) ;
#123 = AXIS2_PLACEMENT_3D ( 'NONE', #222, #100, #248 ) ;
#124 = CARTESIAN_POINT ( 'NONE',  ( 0.0000000000000000000, 0.0000000000000000000, -6.000000000000000900 ) ) ;
#125 = CARTESIAN_POINT ( 'NONE',  ( 0.3125000000000000000, 3.827021247335477700E-017, -5.959999999999989300 ) ) ;
#126 = CIRCLE ( 'NONE', #216, 0.2724999999999889200 ) ;
#127 =( LENGTH_UNIT ( ) NAMED_UNIT ( * ) SI_UNIT ( $, .METRE. ) );
#128 = DIRECTION ( 'NONE',  ( 0.0000000000000000000, 0.0000000000000000000, -1.000000000000000000 ) ) ;
#129 = CARTESIAN_POINT ( 'NONE',  ( 0.0000000000000000000, 0.0000000000000000000, 0.0000000000000000000 ) ) ;
#130 = SURFACE_SIDE_STYLE ('',( #29 ) ) ;
#131 = ORIENTED_EDGE ( 'NONE', *, *, #89, .F. ) ;
#132 = DIMENSIONAL_EXPONENTS ( 1.000000000000000000, 0.0000000000000000000, 0.0000000000000000000, 0.0000000000000000000, 0.0000000000000000000, 0.0000000000000000000, 0.0000000000000000000 ) ;
#133 = AXIS2_PLACEMENT_3D ( 'NONE', #64, #107, #199 ) ;
#134 = LINE ( 'NONE', #182, #85 ) ;
#135 = EDGE_LOOP ( 'NONE', ( #223, #8, #198, #97 ) ) ;
#136 = AXIS2_PLACEMENT_3D ( 'NONE', #101, #225, #121 ) ;
#137 = CONICAL_SURFACE ( 'NONE', #13, 0.3125000000000000000, 0.7853981633974423900 ) ;
#138 = EDGE_LOOP ( 'NONE', ( #109, #202, #62, #35 ) ) ;
#139 = LENGTH_MEASURE_WITH_UNIT ( LENGTH_MEASURE( 0.02539999999999999900 ), #148 );
#140 = CARTESIAN_POINT ( 'NONE',  ( 0.0000000000000000000, 0.0000000000000000000, 5.960000000000006200 ) ) ;
#141 = DIRECTION ( 'NONE',  ( 1.000000000000000000, 0.0000000000000000000, 0.0000000000000000000 ) ) ;
#142 = CARTESIAN_POINT ( 'NONE',  ( -0.2725000000000064000, 0.0000000000000000000, 6.000000000000000900 ) ) ;
#143 = STYLED_ITEM ( 'NONE', ( #80 ), #203 ) ;
#144 =( NAMED_UNIT ( * ) PLANE_ANGLE_UNIT ( ) SI_UNIT ( $, .RADIAN. ) );
#145 = ORIENTED_EDGE ( 'NONE', *, *, #249, .T. ) ;
#146 = ORIENTED_EDGE ( 'NONE', *, *, #105, .F. ) ;
#147 = FILL_AREA_STYLE_COLOUR ( '', #219 ) ;
#148 =( LENGTH_UNIT ( ) NAMED_UNIT ( * ) SI_UNIT ( $, .METRE. ) );
#149 = ADVANCED_FACE ( 'NONE', ( #26 ), #32, .T. ) ;
#150 = LINE ( 'NONE', #207, #170 ) ;
#151 = ORIENTED_EDGE ( 'NONE', *, *, #105, .T. ) ;
#152 = PRESENTATION_LAYER_ASSIGNMENT (  '', '', ( #143 ) ) ;
#153 = CIRCLE ( 'NONE', #96, 0.3125000000000000000 ) ;
#154 = ORIENTED_EDGE ( 'NONE', *, *, #52, .T. ) ;
#155 = CARTESIAN_POINT ( 'NONE',  ( 0.2725000000000064000, 3.582091887506047000E-017, 6.000000000000000900 ) ) ;
#156 = DIRECTION ( 'NONE',  ( 1.000000000000000000, 0.0000000000000000000, 0.0000000000000000000 ) ) ;
#157 = DIRECTION ( 'NONE',  ( 0.0000000000000000000, 0.0000000000000000000, 1.000000000000000000 ) ) ;
#158 = FACE_OUTER_BOUND ( 'NONE', #174, .T. ) ;
#159 = AXIS2_PLACEMENT_3D ( 'NONE', #102, #226, #122 ) ;
#160 = DIRECTION ( 'NONE',  ( 1.000000000000000000, 0.0000000000000000000, -0.0000000000000000000 ) ) ;
#161 = DIRECTION ( 'NONE',  ( -0.0000000000000000000, -0.0000000000000000000, 1.000000000000000000 ) ) ;
#162 = LINE ( 'NONE', #224, #54 ) ;
#163 = ORIENTED_EDGE ( 'NONE', *, *, #99, .T. ) ;
#164 = UNCERTAINTY_MEASURE_WITH_UNIT (LENGTH_MEASURE( 1.000000000000000100E-005 ), #46, 'distance_accuracy_value', 'NONE');
#165 =( LENGTH_UNIT ( ) NAMED_UNIT ( * ) SI_UNIT ( $, .METRE. ) );
#166 =( NAMED_UNIT ( * ) PLANE_ANGLE_UNIT ( ) SI_UNIT ( $, .RADIAN. ) );
#167 = ADVANCED_FACE ( 'NONE', ( #17 ), #137, .T. ) ;
#168 = MANIFOLD_SOLID_BREP ( 'Chamfer1', #72 ) ;
#169 = MECHANICAL_DESIGN_GEOMETRIC_PRESENTATION_REPRESENTATION (  '', ( #143 ), #181 ) ;
#170 = VECTOR ( 'NONE', #57, 39.37007874015748900 ) ;
#171 = AXIS2_PLACEMENT_3D ( 'NONE', #175, #157, #38 ) ;
#172 = LINE ( 'NONE', #208, #217 ) ;
#173 = DIRECTION ( 'NONE',  ( -0.0000000000000000000, -0.0000000000000000000, 1.000000000000000000 ) ) ;
#174 = EDGE_LOOP ( 'NONE', ( #241, #218, #51, #146 ) ) ;
#175 = CARTESIAN_POINT ( 'NONE',  ( 0.0000000000000000000, 0.0000000000000000000, 6.000000000000000900 ) ) ;
#176 = PLANE ( 'NONE',  #228 ) ;
#177 = PRODUCT_DEFINITION_SHAPE ( 'NONE', 'NONE',  #221 ) ;
#178 = DIRECTION ( 'NONE',  ( -0.0000000000000000000, -0.0000000000000000000, -1.000000000000000000 ) ) ;
#179 = COLOUR_RGB ( '',0.7921568627450980000, 0.8196078431372548800, 0.9333333333333333500 ) ;
#180 = DIRECTION ( 'NONE',  ( 1.000000000000000000, 0.0000000000000000000, 0.0000000000000000000 ) ) ;
#181 =( GEOMETRIC_REPRESENTATION_CONTEXT ( 3 ) GLOBAL_UNCERTAINTY_ASSIGNED_CONTEXT ( ( #247 ) ) GLOBAL_UNIT_ASSIGNED_CONTEXT ( ( #30, #166, #47 ) ) REPRESENTATION_CONTEXT ( 'NONE', 'WORKASPACE' ) );
#182 = CARTESIAN_POINT ( 'NONE',  ( 0.3125000000000000000, 3.827021247335477700E-017, 6.000000000000000900 ) ) ;
#183 =( NAMED_UNIT ( * ) PLANE_ANGLE_UNIT ( ) SI_UNIT ( $, .RADIAN. ) );
#184 = ORIENTED_EDGE ( 'NONE', *, *, #237, .F. ) ;
#185 = AXIS2_PLACEMENT_3D ( 'NONE', #58, #192, #83 ) ;
#186 = SURFACE_STYLE_FILL_AREA ( #210 ) ;
#187 = VERTEX_POINT ( 'NONE', #63 ) ;
#188 = ORIENTED_EDGE ( 'NONE', *, *, #70, .F. ) ;
#189 = ORIENTED_EDGE ( 'NONE', *, *, #84, .T. ) ;
#190 = VERTEX_POINT ( 'NONE', #42 ) ;
#191 = CARTESIAN_POINT ( 'NONE',  ( -0.2724999999999889200, 3.582091887505940400E-017, -6.000000000000000900 ) ) ;
#192 = DIRECTION ( 'NONE',  ( 0.0000000000000000000, 0.0000000000000000000, 1.000000000000000000 ) ) ;
#193 = AXIS2_PLACEMENT_3D ( 'NONE', #124, #3, #141 ) ;
#194 = DIRECTION ( 'NONE',  ( 0.0000000000000000000, 0.0000000000000000000, -1.000000000000000000 ) ) ;
#195 = EDGE_CURVE ( 'NONE', #28, #187, #220, .T. ) ;
#196 = CARTESIAN_POINT ( 'NONE',  ( 0.0000000000000000000, 0.0000000000000000000, 6.000000000000000900 ) ) ;
#197 = VECTOR ( 'NONE', #78, 39.37007874015748900 ) ;
#198 = ORIENTED_EDGE ( 'NONE', *, *, #15, .F. ) ;
#199 = DIRECTION ( 'NONE',  ( -1.000000000000000000, 0.0000000000000000000, 0.0000000000000000000 ) ) ;
#200 = DIRECTION ( 'NONE',  ( 1.000000000000000000, 0.0000000000000000000, 0.0000000000000000000 ) ) ;
#201 = CONICAL_SURFACE ( 'NONE', #82, 0.2725000000000064000, 0.7853981633974423900 ) ;
#202 = ORIENTED_EDGE ( 'NONE', *, *, #84, .F. ) ;
#203 = ADVANCED_BREP_SHAPE_REPRESENTATION ( 'RPSS10-12', ( #168, #211 ), #94 ) ;
#204 = CIRCLE ( 'NONE', #136, 0.2725000000000064000 ) ;
#205 = VERTEX_POINT ( 'NONE', #142 ) ;
#206 = CARTESIAN_POINT ( 'NONE',  ( 0.3125000000000000000, 3.827021247335477700E-017, 5.960000000000006200 ) ) ;
#207 = CARTESIAN_POINT ( 'NONE',  ( 0.2725000000000064000, 3.337162527676615800E-017, 6.000000000000000900 ) ) ;
#208 = CARTESIAN_POINT ( 'NONE',  ( -0.3125000000000000000, 0.0000000000000000000, 6.000000000000000900 ) ) ;
#209 = CARTESIAN_POINT ( 'NONE',  ( 0.0000000000000000000, 0.0000000000000000000, -6.000000000000000900 ) ) ;
#210 = FILL_AREA_STYLE ('',( #87 ) ) ;
#211 = AXIS2_PLACEMENT_3D ( 'NONE', #129, #66, #200 ) ;
#212 = CIRCLE ( 'NONE', #193, 0.2724999999999889200 ) ;
#213 = FACE_OUTER_BOUND ( 'NONE', #138, .T. ) ;
#214 = APPLICATION_CONTEXT ( 'automotive_design' ) ;
#215 = ADVANCED_FACE ( 'NONE', ( #76 ), #53, .T. ) ;
#216 = AXIS2_PLACEMENT_3D ( 'NONE', #209, #104, #230 ) ;
#217 = VECTOR ( 'NONE', #178, 39.37007874015748100 ) ;
#218 = ORIENTED_EDGE ( 'NONE', *, *, #237, .T. ) ;
#219 = COLOUR_RGB ( '',0.7921568627450980000, 0.8196078431372548800, 0.9333333333333333500 ) ;
#220 = CIRCLE ( 'NONE', #75, 0.3125000000000000000 ) ;
#221 = PRODUCT_DEFINITION ( 'UNKNOWN', '', #239, #103 ) ;
#222 = CARTESIAN_POINT ( 'NONE',  ( 0.0000000000000000000, 0.0000000000000000000, -5.959999999999989300 ) ) ;
#223 = ORIENTED_EDGE ( 'NONE', *, *, #99, .F. ) ;
#224 = CARTESIAN_POINT ( 'NONE',  ( -0.2725000000000064000, 0.0000000000000000000, 6.000000000000000900 ) ) ;
#225 = DIRECTION ( 'NONE',  ( 0.0000000000000000000, 0.0000000000000000000, 1.000000000000000000 ) ) ;
#226 = DIRECTION ( 'NONE',  ( -0.0000000000000000000, -0.0000000000000000000, 1.000000000000000000 ) ) ;
#227 = CARTESIAN_POINT ( 'NONE',  ( 0.0000000000000000000, 0.0000000000000000000, -6.000000000000000900 ) ) ;
#228 = AXIS2_PLACEMENT_3D ( 'NONE', #227, #23, #160 ) ;
#229 = PRESENTATION_STYLE_ASSIGNMENT (( #232 ) ) ;
#230 = DIRECTION ( 'NONE',  ( 1.000000000000000000, 0.0000000000000000000, 0.0000000000000000000 ) ) ;
#231 = ORIENTED_EDGE ( 'NONE', *, *, #39, .F. ) ;
#232 = SURFACE_STYLE_USAGE ( .BOTH. , #106 ) ;
#233 = CARTESIAN_POINT ( 'NONE',  ( 0.0000000000000000000, 0.0000000000000000000, 5.960000000000006200 ) ) ;
#234 = CARTESIAN_POINT ( 'NONE',  ( 0.3125000000000000000, 0.0000000000000000000, -5.959999999999989300 ) ) ;
#235 = ORIENTED_EDGE ( 'NONE', *, *, #68, .F. ) ;
#236 = FILL_AREA_STYLE ('',( #147 ) ) ;
#237 = EDGE_CURVE ( 'NONE', #28, #116, #134, .T. ) ;
#238 = ADVANCED_FACE ( 'NONE', ( #158 ), #11, .T. ) ;
#239 = PRODUCT_DEFINITION_FORMATION_WITH_SPECIFIED_SOURCE ( 'ANY', '', #37, .NOT_KNOWN. ) ;
#240 = DIMENSIONAL_EXPONENTS ( 1.000000000000000000, 0.0000000000000000000, 0.0000000000000000000, 0.0000000000000000000, 0.0000000000000000000, 0.0000000000000000000, 0.0000000000000000000 ) ;
#241 = ORIENTED_EDGE ( 'NONE', *, *, #39, .T. ) ;
#242 = ORIENTED_EDGE ( 'NONE', *, *, #31, .F. ) ;
#243 = AXIS2_PLACEMENT_3D ( 'NONE', #4, #194, #25 ) ;
#244 = CIRCLE ( 'NONE', #113, 0.3125000000000000000 ) ;
#245 = ORIENTED_EDGE ( 'NONE', *, *, #89, .T. ) ;
#246 = CARTESIAN_POINT ( 'NONE',  ( 0.0000000000000000000, 0.0000000000000000000, 6.000000000000000900 ) ) ;
#247 = UNCERTAINTY_MEASURE_WITH_UNIT (LENGTH_MEASURE( 1.000000000000000100E-005 ), #30, 'distance_accuracy_value', 'NONE');
#248 = DIRECTION ( 'NONE',  ( 1.000000000000000000, 0.0000000000000000000, 0.0000000000000000000 ) ) ;
#249 = EDGE_CURVE ( 'NONE', #79, #116, #71, .T. ) ;
ENDSEC;
END-ISO-10303-21;
