ISO-10303-21;
HEADER;
FILE_DESCRIPTION (( 'STEP AP214' ),
    '1' );
FILE_NAME ('RPSS10-24.step',
    '2017-08-09T17:46:32',
    ( '' ),
    ( '' ),
    'SwSTEP 2.0',
    'SolidWorks 2017',
    '' );
FILE_SCHEMA (( 'AUTOMOTIVE_DESIGN' ));
ENDSEC;

DATA;
#1 =( LENGTH_UNIT ( ) NAMED_UNIT ( * ) SI_UNIT ( $, .METRE. ) );
#2 = CARTESIAN_POINT ( 'NONE',  ( 0.0000000000000000000, 0.0000000000000000000, -12.00000000000000200 ) ) ;
#3 = EDGE_LOOP ( 'NONE', ( #7, #101, #215, #146 ) ) ;
#4 = LINE ( 'NONE', #155, #90 ) ;
#5 = AXIS2_PLACEMENT_3D ( 'NONE', #224, #16, #132 ) ;
#6 = APPLICATION_CONTEXT ( 'automotive_design' ) ;
#7 = ORIENTED_EDGE ( 'NONE', *, *, #56, .F. ) ;
#8 = LINE ( 'NONE', #170, #203 ) ;
#9 = EDGE_CURVE ( 'NONE', #220, #149, #103, .T. ) ;
#10 = ORIENTED_EDGE ( 'NONE', *, *, #44, .F. ) ;
#11 = UNCERTAINTY_MEASURE_WITH_UNIT (LENGTH_MEASURE( 1.000000000000000100E-005 ), #77, 'distance_accuracy_value', 'NONE');
#12 = ORIENTED_EDGE ( 'NONE', *, *, #56, .T. ) ;
#13 = ORIENTED_EDGE ( 'NONE', *, *, #216, .F. ) ;
#14 = DIRECTION ( 'NONE',  ( 1.000000000000000000, 0.0000000000000000000, 0.0000000000000000000 ) ) ;
#15 = AXIS2_PLACEMENT_3D ( 'NONE', #245, #131, #14 ) ;
#16 = DIRECTION ( 'NONE',  ( 0.0000000000000000000, 0.0000000000000000000, -1.000000000000000000 ) ) ;
#17 = DIRECTION ( 'NONE',  ( 1.000000000000000000, 0.0000000000000000000, 0.0000000000000000000 ) ) ;
#18 = DIRECTION ( 'NONE',  ( -0.7071067811865530100, 0.0000000000000000000, -0.7071067811865421300 ) ) ;
#19 =( NAMED_UNIT ( * ) PLANE_ANGLE_UNIT ( ) SI_UNIT ( $, .RADIAN. ) );
#20 = ORIENTED_EDGE ( 'NONE', *, *, #9, .F. ) ;
#21 = EDGE_CURVE ( 'NONE', #83, #127, #8, .T. ) ;
#22 = CARTESIAN_POINT ( 'NONE',  ( 0.0000000000000000000, 0.0000000000000000000, -12.00000000000000200 ) ) ;
#23 = CARTESIAN_POINT ( 'NONE',  ( 0.0000000000000000000, 0.0000000000000000000, 0.0000000000000000000 ) ) ;
#24 = FILL_AREA_STYLE ('',( #142 ) ) ;
#25 = ORIENTED_EDGE ( 'NONE', *, *, #21, .T. ) ;
#26 = AXIS2_PLACEMENT_3D ( 'NONE', #104, #128, #47 ) ;
#27 = VERTEX_POINT ( 'NONE', #204 ) ;
#28 = EDGE_CURVE ( 'NONE', #118, #127, #166, .T. ) ;
#29 = DIRECTION ( 'NONE',  ( -0.7071067811865335800, 8.659560562354762800E-017, 0.7071067811865613400 ) ) ;
#30 = FACE_OUTER_BOUND ( 'NONE', #221, .T. ) ;
#31 = PRODUCT_DEFINITION_CONTEXT ( 'detailed design', #6, 'design' ) ;
#32 = LINE ( 'NONE', #206, #234 ) ;
#33 = CARTESIAN_POINT ( 'NONE',  ( 0.0000000000000000000, 0.0000000000000000000, 12.00000000000000200 ) ) ;
#34 = SHAPE_DEFINITION_REPRESENTATION ( #107, #51 ) ;
#35 = EDGE_LOOP ( 'NONE', ( #227, #186, #94, #115 ) ) ;
#36 = DIRECTION ( 'NONE',  ( -0.0000000000000000000, -0.0000000000000000000, 1.000000000000000000 ) ) ;
#37 = DIRECTION ( 'NONE',  ( 1.000000000000000000, 0.0000000000000000000, -0.0000000000000000000 ) ) ;
#38 = DIRECTION ( 'NONE',  ( 1.000000000000000000, 0.0000000000000000000, 0.0000000000000000000 ) ) ;
#39 = FACE_OUTER_BOUND ( 'NONE', #208, .T. ) ;
#40 = CARTESIAN_POINT ( 'NONE',  ( 0.0000000000000000000, 0.0000000000000000000, 11.96000000000001000 ) ) ;
#41 = EDGE_CURVE ( 'NONE', #220, #27, #161, .T. ) ;
#42 = SURFACE_STYLE_USAGE ( .BOTH. , #164 ) ;
#43 = ORIENTED_EDGE ( 'NONE', *, *, #21, .F. ) ;
#44 = EDGE_CURVE ( 'NONE', #62, #118, #54, .T. ) ;
#45 = FACE_OUTER_BOUND ( 'NONE', #35, .T. ) ;
#46 = VECTOR ( 'NONE', #86, 39.37007874015748100 ) ;
#47 = DIRECTION ( 'NONE',  ( 1.000000000000000000, 0.0000000000000000000, 0.0000000000000000000 ) ) ;
#48 = MECHANICAL_DESIGN_GEOMETRIC_PRESENTATION_REPRESENTATION (  '', ( #178 ), #139 ) ;
#49 = DIRECTION ( 'NONE',  ( -0.0000000000000000000, -0.0000000000000000000, -1.000000000000000000 ) ) ;
#50 = PRESENTATION_STYLE_ASSIGNMENT (( #42 ) ) ;
#51 = ADVANCED_BREP_SHAPE_REPRESENTATION ( 'RPSS10-24', ( #152, #102 ), #84 ) ;
#52 = CARTESIAN_POINT ( 'NONE',  ( 0.0000000000000000000, 0.0000000000000000000, -11.95999999999998300 ) ) ;
#53 = FILL_AREA_STYLE_COLOUR ( '', #76 ) ;
#54 = LINE ( 'NONE', #105, #200 ) ;
#55 = PLANE ( 'NONE',  #147 ) ;
#56 = EDGE_CURVE ( 'NONE', #27, #118, #4, .T. ) ;
#57 = DIRECTION ( 'NONE',  ( 1.000000000000000000, 0.0000000000000000000, 0.0000000000000000000 ) ) ;
#58 =( CONVERSION_BASED_UNIT ( 'INCH', #248 ) LENGTH_UNIT ( ) NAMED_UNIT ( #95 ) );
#59 = ORIENTED_EDGE ( 'NONE', *, *, #91, .F. ) ;
#60 = LENGTH_MEASURE_WITH_UNIT ( LENGTH_MEASURE( 0.02539999999999999900 ), #198 );
#61 =( GEOMETRIC_REPRESENTATION_CONTEXT ( 3 ) GLOBAL_UNCERTAINTY_ASSIGNED_CONTEXT ( ( #97 ) ) GLOBAL_UNIT_ASSIGNED_CONTEXT ( ( #58, #199, #78 ) ) REPRESENTATION_CONTEXT ( 'NONE', 'WORKASPACE' ) );
#62 = VERTEX_POINT ( 'NONE', #205 ) ;
#63 = EDGE_CURVE ( 'NONE', #151, #127, #244, .T. ) ;
#64 = DIRECTION ( 'NONE',  ( 0.7071067811865335800, 0.0000000000000000000, 0.7071067811865613400 ) ) ;
#65 = CIRCLE ( 'NONE', #98, 0.3125000000000000000 ) ;
#66 = ADVANCED_FACE ( 'NONE', ( #45 ), #187, .T. ) ;
#67 = CARTESIAN_POINT ( 'NONE',  ( 0.3125000000000000000, 3.827021247335477700E-017, -11.95999999999998300 ) ) ;
#68 = DIRECTION ( 'NONE',  ( 1.000000000000000000, 0.0000000000000000000, 0.0000000000000000000 ) ) ;
#69 = DIRECTION ( 'NONE',  ( -0.0000000000000000000, -0.0000000000000000000, 1.000000000000000000 ) ) ;
#70 = ORIENTED_EDGE ( 'NONE', *, *, #216, .T. ) ;
#71 = CARTESIAN_POINT ( 'NONE',  ( 0.0000000000000000000, 0.0000000000000000000, 12.00000000000000200 ) ) ;
#72 = DIRECTION ( 'NONE',  ( -1.000000000000000000, 0.0000000000000000000, 0.0000000000000000000 ) ) ;
#73 = CARTESIAN_POINT ( 'NONE',  ( 0.0000000000000000000, 0.0000000000000000000, -12.00000000000000200 ) ) ;
#74 = CIRCLE ( 'NONE', #159, 0.2724999999999834200 ) ;
#75 = ADVANCED_FACE ( 'NONE', ( #99 ), #153, .T. ) ;
#76 = COLOUR_RGB ( '',0.7921568627450980000, 0.8196078431372548800, 0.9333333333333333500 ) ;
#77 =( CONVERSION_BASED_UNIT ( 'INCH', #60 ) LENGTH_UNIT ( ) NAMED_UNIT ( #143 ) );
#78 =( NAMED_UNIT ( * ) SI_UNIT ( $, .STERADIAN. ) SOLID_ANGLE_UNIT ( ) );
#79 = EDGE_LOOP ( 'NONE', ( #175, #70 ) ) ;
#80 = EDGE_CURVE ( 'NONE', #27, #151, #85, .T. ) ;
#81 = FACE_OUTER_BOUND ( 'NONE', #79, .T. ) ;
#82 = FACE_OUTER_BOUND ( 'NONE', #168, .T. ) ;
#83 = VERTEX_POINT ( 'NONE', #225 ) ;
#84 =( GEOMETRIC_REPRESENTATION_CONTEXT ( 3 ) GLOBAL_UNCERTAINTY_ASSIGNED_CONTEXT ( ( #11 ) ) GLOBAL_UNIT_ASSIGNED_CONTEXT ( ( #77, #212, #93 ) ) REPRESENTATION_CONTEXT ( 'NONE', 'WORKASPACE' ) );
#85 = CIRCLE ( 'NONE', #222, 0.3125000000000000000 ) ;
#86 = DIRECTION ( 'NONE',  ( 0.7071067811865530100, 8.659560562355000700E-017, -0.7071067811865421300 ) ) ;
#87 = EDGE_LOOP ( 'NONE', ( #194, #12, #182, #136 ) ) ;
#88 = FILL_AREA_STYLE ('',( #53 ) ) ;
#89 = DIRECTION ( 'NONE',  ( -0.0000000000000000000, -0.0000000000000000000, -1.000000000000000000 ) ) ;
#90 = VECTOR ( 'NONE', #189, 39.37007874015748100 ) ;
#91 = EDGE_CURVE ( 'NONE', #127, #118, #239, .T. ) ;
#92 = DIRECTION ( 'NONE',  ( 1.000000000000000000, 0.0000000000000000000, 0.0000000000000000000 ) ) ;
#93 =( NAMED_UNIT ( * ) SI_UNIT ( $, .STERADIAN. ) SOLID_ANGLE_UNIT ( ) );
#94 = ORIENTED_EDGE ( 'NONE', *, *, #119, .T. ) ;
#95 = DIMENSIONAL_EXPONENTS ( 1.000000000000000000, 0.0000000000000000000, 0.0000000000000000000, 0.0000000000000000000, 0.0000000000000000000, 0.0000000000000000000, 0.0000000000000000000 ) ;
#96 = DIRECTION ( 'NONE',  ( 0.0000000000000000000, 0.0000000000000000000, 1.000000000000000000 ) ) ;
#97 = UNCERTAINTY_MEASURE_WITH_UNIT (LENGTH_MEASURE( 1.000000000000000100E-005 ), #58, 'distance_accuracy_value', 'NONE');
#98 = AXIS2_PLACEMENT_3D ( 'NONE', #40, #179, #57 ) ;
#99 = FACE_OUTER_BOUND ( 'NONE', #87, .T. ) ;
#100 = COLOUR_RGB ( '',0.7921568627450980000, 0.8196078431372548800, 0.9333333333333333500 ) ;
#101 = ORIENTED_EDGE ( 'NONE', *, *, #80, .T. ) ;
#102 = AXIS2_PLACEMENT_3D ( 'NONE', #23, #96, #237 ) ;
#103 = CIRCLE ( 'NONE', #26, 0.2725000000000074600 ) ;
#104 = CARTESIAN_POINT ( 'NONE',  ( 0.0000000000000000000, 0.0000000000000000000, 12.00000000000000200 ) ) ;
#105 = CARTESIAN_POINT ( 'NONE',  ( 0.3125000000000000000, 0.0000000000000000000, -11.95999999999998300 ) ) ;
#106 = EDGE_CURVE ( 'NONE', #149, #220, #148, .T. ) ;
#107 = PRODUCT_DEFINITION_SHAPE ( 'NONE', 'NONE',  #117 ) ;
#108 = CARTESIAN_POINT ( 'NONE',  ( 0.2725000000000074600, 3.337162527676629300E-017, 12.00000000000000200 ) ) ;
#109 = DIRECTION ( 'NONE',  ( 0.0000000000000000000, 0.0000000000000000000, 1.000000000000000000 ) ) ;
#110 = SURFACE_STYLE_USAGE ( .BOTH. , #228 ) ;
#111 = AXIS2_PLACEMENT_3D ( 'NONE', #197, #138, #72 ) ;
#112 = ORIENTED_EDGE ( 'NONE', *, *, #9, .T. ) ;
#113 = DIRECTION ( 'NONE',  ( 0.0000000000000000000, 0.0000000000000000000, 1.000000000000000000 ) ) ;
#114 = APPLICATION_PROTOCOL_DEFINITION ( 'draft international standard', 'automotive_design', 1998, #144 ) ;
#115 = ORIENTED_EDGE ( 'NONE', *, *, #80, .F. ) ;
#116 = PRODUCT_CONTEXT ( 'NONE', #144, 'mechanical' ) ;
#117 = PRODUCT_DEFINITION ( 'UNKNOWN', '', #135, #31 ) ;
#118 = VERTEX_POINT ( 'NONE', #67 ) ;
#119 = EDGE_CURVE ( 'NONE', #149, #151, #32, .T. ) ;
#120 = ADVANCED_FACE ( 'NONE', ( #82 ), #223, .T. ) ;
#121 = MECHANICAL_DESIGN_GEOMETRIC_PRESENTATION_REPRESENTATION (  '', ( #217 ), #61 ) ;
#122 = SURFACE_STYLE_FILL_AREA ( #24 ) ;
#123 = CLOSED_SHELL ( 'NONE', ( #235, #163, #75, #165, #201, #181, #120, #66 ) ) ;
#124 = EDGE_LOOP ( 'NONE', ( #126, #112 ) ) ;
#125 = AXIS2_PLACEMENT_3D ( 'NONE', #73, #210, #92 ) ;
#126 = ORIENTED_EDGE ( 'NONE', *, *, #106, .T. ) ;
#127 = VERTEX_POINT ( 'NONE', #192 ) ;
#128 = DIRECTION ( 'NONE',  ( 0.0000000000000000000, 0.0000000000000000000, 1.000000000000000000 ) ) ;
#129 = FACE_OUTER_BOUND ( 'NONE', #124, .T. ) ;
#130 = SURFACE_STYLE_FILL_AREA ( #88 ) ;
#131 = DIRECTION ( 'NONE',  ( -0.0000000000000000000, -0.0000000000000000000, 1.000000000000000000 ) ) ;
#132 = DIRECTION ( 'NONE',  ( -1.000000000000000000, 0.0000000000000000000, 0.0000000000000000000 ) ) ;
#133 = DIRECTION ( 'NONE',  ( 0.0000000000000000000, 0.0000000000000000000, -1.000000000000000000 ) ) ;
#134 = CARTESIAN_POINT ( 'NONE',  ( 0.0000000000000000000, 0.0000000000000000000, -11.95999999999998300 ) ) ;
#135 = PRODUCT_DEFINITION_FORMATION_WITH_SPECIFIED_SOURCE ( 'ANY', '', #230, .NOT_KNOWN. ) ;
#136 = ORIENTED_EDGE ( 'NONE', *, *, #63, .F. ) ;
#137 =( CONVERSION_BASED_UNIT ( 'INCH', #172 ) LENGTH_UNIT ( ) NAMED_UNIT ( #213 ) );
#138 = DIRECTION ( 'NONE',  ( 0.0000000000000000000, 0.0000000000000000000, -1.000000000000000000 ) ) ;
#139 =( GEOMETRIC_REPRESENTATION_CONTEXT ( 3 ) GLOBAL_UNCERTAINTY_ASSIGNED_CONTEXT ( ( #214 ) ) GLOBAL_UNIT_ASSIGNED_CONTEXT ( ( #137, #19, #158 ) ) REPRESENTATION_CONTEXT ( 'NONE', 'WORKASPACE' ) );
#140 = CIRCLE ( 'NONE', #125, 0.2724999999999834200 ) ;
#141 = PRESENTATION_STYLE_ASSIGNMENT (( #110 ) ) ;
#142 = FILL_AREA_STYLE_COLOUR ( '', #100 ) ;
#143 = DIMENSIONAL_EXPONENTS ( 1.000000000000000000, 0.0000000000000000000, 0.0000000000000000000, 0.0000000000000000000, 0.0000000000000000000, 0.0000000000000000000, 0.0000000000000000000 ) ;
#144 = APPLICATION_CONTEXT ( 'automotive_design' ) ;
#145 = APPLICATION_PROTOCOL_DEFINITION ( 'draft international standard', 'automotive_design', 1998, #6 ) ;
#146 = ORIENTED_EDGE ( 'NONE', *, *, #91, .T. ) ;
#147 = AXIS2_PLACEMENT_3D ( 'NONE', #195, #113, #209 ) ;
#148 = CIRCLE ( 'NONE', #202, 0.2725000000000074600 ) ;
#149 = VERTEX_POINT ( 'NONE', #174 ) ;
#150 = PRODUCT_RELATED_PRODUCT_CATEGORY ( 'part', '', ( #230 ) ) ;
#151 = VERTEX_POINT ( 'NONE', #173 ) ;
#152 = MANIFOLD_SOLID_BREP ( 'Chamfer1', #123 ) ;
#153 = CYLINDRICAL_SURFACE ( 'NONE', #211, 0.3125000000000000000 ) ;
#154 = AXIS2_PLACEMENT_3D ( 'NONE', #176, #69, #193 ) ;
#155 = CARTESIAN_POINT ( 'NONE',  ( 0.3125000000000000000, 3.827021247335477700E-017, 12.00000000000000200 ) ) ;
#156 = DIRECTION ( 'NONE',  ( -1.000000000000000000, 0.0000000000000000000, 0.0000000000000000000 ) ) ;
#157 = DIRECTION ( 'NONE',  ( 1.000000000000000000, 0.0000000000000000000, 0.0000000000000000000 ) ) ;
#158 =( NAMED_UNIT ( * ) SI_UNIT ( $, .STERADIAN. ) SOLID_ANGLE_UNIT ( ) );
#159 = AXIS2_PLACEMENT_3D ( 'NONE', #22, #162, #38 ) ;
#160 = PLANE ( 'NONE',  #169 ) ;
#161 = LINE ( 'NONE', #108, #46 ) ;
#162 = DIRECTION ( 'NONE',  ( -0.0000000000000000000, -0.0000000000000000000, -1.000000000000000000 ) ) ;
#163 = ADVANCED_FACE ( 'NONE', ( #39 ), #233, .T. ) ;
#164 = SURFACE_SIDE_STYLE ('',( #122 ) ) ;
#165 = ADVANCED_FACE ( 'NONE', ( #185 ), #184, .T. ) ;
#166 = CIRCLE ( 'NONE', #15, 0.3125000000000000000 ) ;
#167 = PRESENTATION_LAYER_ASSIGNMENT (  '', '', ( #178 ) ) ;
#168 = EDGE_LOOP ( 'NONE', ( #43, #219, #242, #59 ) ) ;
#169 = AXIS2_PLACEMENT_3D ( 'NONE', #2, #229, #37 ) ;
#170 = CARTESIAN_POINT ( 'NONE',  ( -0.3125000000000000000, 3.827021247335478900E-017, -11.95999999999998300 ) ) ;
#171 = CARTESIAN_POINT ( 'NONE',  ( -0.3125000000000000000, 0.0000000000000000000, 12.00000000000000200 ) ) ;
#172 = LENGTH_MEASURE_WITH_UNIT ( LENGTH_MEASURE( 0.02539999999999999900 ), #1 );
#173 = CARTESIAN_POINT ( 'NONE',  ( -0.3125000000000000000, 0.0000000000000000000, 11.96000000000001000 ) ) ;
#174 = CARTESIAN_POINT ( 'NONE',  ( -0.2725000000000074600, 0.0000000000000000000, 12.00000000000000200 ) ) ;
#175 = ORIENTED_EDGE ( 'NONE', *, *, #231, .T. ) ;
#176 = CARTESIAN_POINT ( 'NONE',  ( 0.0000000000000000000, 0.0000000000000000000, -11.95999999999998300 ) ) ;
#177 = ORIENTED_EDGE ( 'NONE', *, *, #41, .T. ) ;
#178 = STYLED_ITEM ( 'NONE', ( #141 ), #152 ) ;
#179 = DIRECTION ( 'NONE',  ( 0.0000000000000000000, 0.0000000000000000000, -1.000000000000000000 ) ) ;
#180 =( LENGTH_UNIT ( ) NAMED_UNIT ( * ) SI_UNIT ( $, .METRE. ) );
#181 = ADVANCED_FACE ( 'NONE', ( #81 ), #160, .F. ) ;
#182 = ORIENTED_EDGE ( 'NONE', *, *, #28, .T. ) ;
#183 = AXIS2_PLACEMENT_3D ( 'NONE', #71, #89, #207 ) ;
#184 = CYLINDRICAL_SURFACE ( 'NONE', #183, 0.3125000000000000000 ) ;
#185 = FACE_OUTER_BOUND ( 'NONE', #3, .T. ) ;
#186 = ORIENTED_EDGE ( 'NONE', *, *, #106, .F. ) ;
#187 = CONICAL_SURFACE ( 'NONE', #5, 0.2725000000000074600, 0.7853981633974560500 ) ;
#188 = AXIS2_PLACEMENT_3D ( 'NONE', #134, #36, #157 ) ;
#189 = DIRECTION ( 'NONE',  ( -0.0000000000000000000, -0.0000000000000000000, -1.000000000000000000 ) ) ;
#190 = DIRECTION ( 'NONE',  ( -0.0000000000000000000, -0.0000000000000000000, 1.000000000000000000 ) ) ;
#191 = ORIENTED_EDGE ( 'NONE', *, *, #119, .F. ) ;
#192 = CARTESIAN_POINT ( 'NONE',  ( -0.3125000000000000000, 0.0000000000000000000, -11.95999999999998300 ) ) ;
#193 = DIRECTION ( 'NONE',  ( 1.000000000000000000, 0.0000000000000000000, 0.0000000000000000000 ) ) ;
#194 = ORIENTED_EDGE ( 'NONE', *, *, #243, .T. ) ;
#195 = CARTESIAN_POINT ( 'NONE',  ( 0.0000000000000000000, 0.0000000000000000000, 12.00000000000000200 ) ) ;
#196 = VECTOR ( 'NONE', #246, 39.37007874015748100 ) ;
#197 = CARTESIAN_POINT ( 'NONE',  ( 0.0000000000000000000, 0.0000000000000000000, 12.00000000000000200 ) ) ;
#198 =( LENGTH_UNIT ( ) NAMED_UNIT ( * ) SI_UNIT ( $, .METRE. ) );
#199 =( NAMED_UNIT ( * ) PLANE_ANGLE_UNIT ( ) SI_UNIT ( $, .RADIAN. ) );
#200 = VECTOR ( 'NONE', #64, 39.37007874015748900 ) ;
#201 = ADVANCED_FACE ( 'NONE', ( #129 ), #55, .T. ) ;
#202 = AXIS2_PLACEMENT_3D ( 'NONE', #226, #109, #249 ) ;
#203 = VECTOR ( 'NONE', #29, 39.37007874015748900 ) ;
#204 = CARTESIAN_POINT ( 'NONE',  ( 0.3125000000000000000, 3.827021247335477700E-017, 11.96000000000001000 ) ) ;
#205 = CARTESIAN_POINT ( 'NONE',  ( 0.2724999999999834200, 0.0000000000000000000, -12.00000000000000200 ) ) ;
#206 = CARTESIAN_POINT ( 'NONE',  ( -0.2725000000000074600, 0.0000000000000000000, 12.00000000000000200 ) ) ;
#207 = DIRECTION ( 'NONE',  ( -1.000000000000000000, 0.0000000000000000000, 0.0000000000000000000 ) ) ;
#208 = EDGE_LOOP ( 'NONE', ( #13, #25, #241, #10 ) ) ;
#209 = DIRECTION ( 'NONE',  ( 1.000000000000000000, 0.0000000000000000000, -0.0000000000000000000 ) ) ;
#210 = DIRECTION ( 'NONE',  ( -0.0000000000000000000, -0.0000000000000000000, -1.000000000000000000 ) ) ;
#211 = AXIS2_PLACEMENT_3D ( 'NONE', #33, #49, #156 ) ;
#212 =( NAMED_UNIT ( * ) PLANE_ANGLE_UNIT ( ) SI_UNIT ( $, .RADIAN. ) );
#213 = DIMENSIONAL_EXPONENTS ( 1.000000000000000000, 0.0000000000000000000, 0.0000000000000000000, 0.0000000000000000000, 0.0000000000000000000, 0.0000000000000000000, 0.0000000000000000000 ) ;
#214 = UNCERTAINTY_MEASURE_WITH_UNIT (LENGTH_MEASURE( 1.000000000000000100E-005 ), #137, 'distance_accuracy_value', 'NONE');
#215 = ORIENTED_EDGE ( 'NONE', *, *, #63, .T. ) ;
#216 = EDGE_CURVE ( 'NONE', #83, #62, #74, .T. ) ;
#217 = STYLED_ITEM ( 'NONE', ( #50 ), #51 ) ;
#218 = CONICAL_SURFACE ( 'NONE', #111, 0.2725000000000074600, 0.7853981633974560500 ) ;
#219 = ORIENTED_EDGE ( 'NONE', *, *, #231, .F. ) ;
#220 = VERTEX_POINT ( 'NONE', #232 ) ;
#221 = EDGE_LOOP ( 'NONE', ( #20, #177, #238, #191 ) ) ;
#222 = AXIS2_PLACEMENT_3D ( 'NONE', #247, #133, #17 ) ;
#223 = CONICAL_SURFACE ( 'NONE', #188, 0.3125000000000000000, 0.7853981633974286300 ) ;
#224 = CARTESIAN_POINT ( 'NONE',  ( 0.0000000000000000000, 0.0000000000000000000, 12.00000000000000200 ) ) ;
#225 = CARTESIAN_POINT ( 'NONE',  ( -0.2724999999999834200, 3.582091887505906500E-017, -12.00000000000000200 ) ) ;
#226 = CARTESIAN_POINT ( 'NONE',  ( 0.0000000000000000000, 0.0000000000000000000, 12.00000000000000200 ) ) ;
#227 = ORIENTED_EDGE ( 'NONE', *, *, #41, .F. ) ;
#228 = SURFACE_SIDE_STYLE ('',( #130 ) ) ;
#229 = DIRECTION ( 'NONE',  ( 0.0000000000000000000, 0.0000000000000000000, 1.000000000000000000 ) ) ;
#230 = PRODUCT ( 'RPSS10-24', 'RPSS10-24', '', ( #116 ) ) ;
#231 = EDGE_CURVE ( 'NONE', #62, #83, #140, .T. ) ;
#232 = CARTESIAN_POINT ( 'NONE',  ( 0.2725000000000074600, 3.582091887506054400E-017, 12.00000000000000200 ) ) ;
#233 = CONICAL_SURFACE ( 'NONE', #154, 0.3125000000000000000, 0.7853981633974286300 ) ;
#234 = VECTOR ( 'NONE', #18, 39.37007874015748100 ) ;
#235 = ADVANCED_FACE ( 'NONE', ( #30 ), #218, .T. ) ;
#236 = PRESENTATION_LAYER_ASSIGNMENT (  '', '', ( #217 ) ) ;
#237 = DIRECTION ( 'NONE',  ( 1.000000000000000000, 0.0000000000000000000, 0.0000000000000000000 ) ) ;
#238 = ORIENTED_EDGE ( 'NONE', *, *, #243, .F. ) ;
#239 = CIRCLE ( 'NONE', #240, 0.3125000000000000000 ) ;
#240 = AXIS2_PLACEMENT_3D ( 'NONE', #52, #190, #68 ) ;
#241 = ORIENTED_EDGE ( 'NONE', *, *, #28, .F. ) ;
#242 = ORIENTED_EDGE ( 'NONE', *, *, #44, .T. ) ;
#243 = EDGE_CURVE ( 'NONE', #151, #27, #65, .T. ) ;
#244 = LINE ( 'NONE', #171, #196 ) ;
#245 = CARTESIAN_POINT ( 'NONE',  ( 0.0000000000000000000, 0.0000000000000000000, -11.95999999999998300 ) ) ;
#246 = DIRECTION ( 'NONE',  ( -0.0000000000000000000, -0.0000000000000000000, -1.000000000000000000 ) ) ;
#247 = CARTESIAN_POINT ( 'NONE',  ( 0.0000000000000000000, 0.0000000000000000000, 11.96000000000001000 ) ) ;
#248 = LENGTH_MEASURE_WITH_UNIT ( LENGTH_MEASURE( 0.02539999999999999900 ), #180 );
#249 = DIRECTION ( 'NONE',  ( 1.000000000000000000, 0.0000000000000000000, 0.0000000000000000000 ) ) ;
ENDSEC;
END-ISO-10303-21;
