ISO-10303-21;
HEADER;
FILE_DESCRIPTION (( 'STEP AP214' ),
    '1' );
FILE_NAME ('RPSS10-36.step',
    '2017-08-09T17:46:49',
    ( '' ),
    ( '' ),
    'SwSTEP 2.0',
    'SolidWorks 2017',
    '' );
FILE_SCHEMA (( 'AUTOMOTIVE_DESIGN' ));
ENDSEC;

DATA;
#1 = VERTEX_POINT ( 'NONE', #15 ) ;
#2 = LENGTH_MEASURE_WITH_UNIT ( LENGTH_MEASURE( 0.02539999999999999900 ), #163 );
#3 = CARTESIAN_POINT ( 'NONE',  ( 0.0000000000000000000, 0.0000000000000000000, 0.0000000000000000000 ) ) ;
#4 = ORIENTED_EDGE ( 'NONE', *, *, #238, .F. ) ;
#5 = FILL_AREA_STYLE ('',( #141 ) ) ;
#6 = EDGE_CURVE ( 'NONE', #1, #110, #64, .T. ) ;
#7 = ADVANCED_FACE ( 'NONE', ( #222 ), #13, .T. ) ;
#8 = CIRCLE ( 'NONE', #71, 0.2724999999999966300 ) ;
#9 = ORIENTED_EDGE ( 'NONE', *, *, #57, .T. ) ;
#10 = VECTOR ( 'NONE', #191, 39.37007874015748900 ) ;
#11 = ORIENTED_EDGE ( 'NONE', *, *, #215, .T. ) ;
#12 = STYLED_ITEM ( 'NONE', ( #29 ), #113 ) ;
#13 = CYLINDRICAL_SURFACE ( 'NONE', #189, 0.3125000000000000000 ) ;
#14 = ORIENTED_EDGE ( 'NONE', *, *, #30, .T. ) ;
#15 = CARTESIAN_POINT ( 'NONE',  ( 0.2724999999999966300, 3.582091887505987300E-017, 18.00000000000000000 ) ) ;
#16 = EDGE_CURVE ( 'NONE', #161, #111, #167, .T. ) ;
#17 = CARTESIAN_POINT ( 'NONE',  ( 0.0000000000000000000, 0.0000000000000000000, -18.00000000000000000 ) ) ;
#18 = CONICAL_SURFACE ( 'NONE', #130, 0.3125000000000000000, 0.7853981633974278500 ) ;
#19 = DIRECTION ( 'NONE',  ( -1.000000000000000000, 0.0000000000000000000, 0.0000000000000000000 ) ) ;
#20 = DIRECTION ( 'NONE',  ( 1.000000000000000000, 0.0000000000000000000, 0.0000000000000000000 ) ) ;
#21 = DIRECTION ( 'NONE',  ( 0.0000000000000000000, 0.0000000000000000000, 1.000000000000000000 ) ) ;
#22 = CLOSED_SHELL ( 'NONE', ( #26, #201, #183, #7, #164, #90, #234, #106 ) ) ;
#23 = CIRCLE ( 'NONE', #165, 0.3125000000000000000 ) ;
#24 = CARTESIAN_POINT ( 'NONE',  ( 0.0000000000000000000, 0.0000000000000000000, 17.96000000000000100 ) ) ;
#25 = SURFACE_STYLE_USAGE ( .BOTH. , #143 ) ;
#26 = ADVANCED_FACE ( 'NONE', ( #115 ), #76, .T. ) ;
#27 = CONICAL_SURFACE ( 'NONE', #157, 0.3125000000000000000, 0.7853981633974278500 ) ;
#28 = PRESENTATION_LAYER_ASSIGNMENT (  '', '', ( #12 ) ) ;
#29 = PRESENTATION_STYLE_ASSIGNMENT (( #38 ) ) ;
#30 = EDGE_CURVE ( 'NONE', #150, #111, #23, .T. ) ;
#31 = CIRCLE ( 'NONE', #81, 0.2724999999999922500 ) ;
#32 = AXIS2_PLACEMENT_3D ( 'NONE', #3, #88, #216 ) ;
#33 = ORIENTED_EDGE ( 'NONE', *, *, #225, .T. ) ;
#34 = DIRECTION ( 'NONE',  ( 0.0000000000000000000, 0.0000000000000000000, 1.000000000000000000 ) ) ;
#35 = CARTESIAN_POINT ( 'NONE',  ( 0.3125000000000000000, 3.827021247335478900E-017, 18.00000000000000000 ) ) ;
#36 = CARTESIAN_POINT ( 'NONE',  ( 0.0000000000000000000, 0.0000000000000000000, 18.00000000000000000 ) ) ;
#37 = MECHANICAL_DESIGN_GEOMETRIC_PRESENTATION_REPRESENTATION (  '', ( #12 ), #53 ) ;
#38 = SURFACE_STYLE_USAGE ( .BOTH. , #156 ) ;
#39 = PLANE ( 'NONE',  #121 ) ;
#40 = CARTESIAN_POINT ( 'NONE',  ( 0.0000000000000000000, 0.0000000000000000000, -17.95999999999999000 ) ) ;
#41 = DIRECTION ( 'NONE',  ( 1.000000000000000000, 0.0000000000000000000, 0.0000000000000000000 ) ) ;
#42 =( CONVERSION_BASED_UNIT ( 'INCH', #2 ) LENGTH_UNIT ( ) NAMED_UNIT ( #185 ) );
#43 = EDGE_CURVE ( 'NONE', #205, #150, #123, .T. ) ;
#44 = DIMENSIONAL_EXPONENTS ( 1.000000000000000000, 0.0000000000000000000, 0.0000000000000000000, 0.0000000000000000000, 0.0000000000000000000, 0.0000000000000000000, 0.0000000000000000000 ) ;
#45 = ORIENTED_EDGE ( 'NONE', *, *, #16, .T. ) ;
#46 = LENGTH_MEASURE_WITH_UNIT ( LENGTH_MEASURE( 0.02539999999999999900 ), #176 );
#47 = PRODUCT_DEFINITION ( 'UNKNOWN', '', #62, #226 ) ;
#48 = UNCERTAINTY_MEASURE_WITH_UNIT (LENGTH_MEASURE( 1.000000000000000100E-005 ), #42, 'distance_accuracy_value', 'NONE');
#49 = ORIENTED_EDGE ( 'NONE', *, *, #134, .F. ) ;
#50 = SHAPE_DEFINITION_REPRESENTATION ( #217, #93 ) ;
#51 = ORIENTED_EDGE ( 'NONE', *, *, #215, .F. ) ;
#52 = PRODUCT ( 'RPSS10-36', 'RPSS10-36', '', ( #107 ) ) ;
#53 =( GEOMETRIC_REPRESENTATION_CONTEXT ( 3 ) GLOBAL_UNCERTAINTY_ASSIGNED_CONTEXT ( ( #186 ) ) GLOBAL_UNIT_ASSIGNED_CONTEXT ( ( #60, #196, #82 ) ) REPRESENTATION_CONTEXT ( 'NONE', 'WORKASPACE' ) );
#54 = ORIENTED_EDGE ( 'NONE', *, *, #73, .F. ) ;
#55 = ORIENTED_EDGE ( 'NONE', *, *, #112, .T. ) ;
#56 = CARTESIAN_POINT ( 'NONE',  ( 0.0000000000000000000, 0.0000000000000000000, -17.95999999999999000 ) ) ;
#57 = EDGE_CURVE ( 'NONE', #231, #150, #219, .T. ) ;
#58 = CARTESIAN_POINT ( 'NONE',  ( 0.3125000000000000000, 3.827021247335478900E-017, -17.95999999999999000 ) ) ;
#59 = FACE_OUTER_BOUND ( 'NONE', #152, .T. ) ;
#60 =( CONVERSION_BASED_UNIT ( 'INCH', #46 ) LENGTH_UNIT ( ) NAMED_UNIT ( #44 ) );
#61 = CARTESIAN_POINT ( 'NONE',  ( 0.0000000000000000000, 0.0000000000000000000, -18.00000000000000000 ) ) ;
#62 = PRODUCT_DEFINITION_FORMATION_WITH_SPECIFIED_SOURCE ( 'ANY', '', #52, .NOT_KNOWN. ) ;
#63 = CARTESIAN_POINT ( 'NONE',  ( 0.0000000000000000000, 0.0000000000000000000, -17.95999999999999000 ) ) ;
#64 = CIRCLE ( 'NONE', #149, 0.2724999999999966300 ) ;
#65 = DIRECTION ( 'NONE',  ( -0.0000000000000000000, -0.0000000000000000000, -1.000000000000000000 ) ) ;
#66 = ORIENTED_EDGE ( 'NONE', *, *, #43, .F. ) ;
#67 =( CONVERSION_BASED_UNIT ( 'INCH', #129 ) LENGTH_UNIT ( ) NAMED_UNIT ( #69 ) );
#68 =( NAMED_UNIT ( * ) SI_UNIT ( $, .STERADIAN. ) SOLID_ANGLE_UNIT ( ) );
#69 = DIMENSIONAL_EXPONENTS ( 1.000000000000000000, 0.0000000000000000000, 0.0000000000000000000, 0.0000000000000000000, 0.0000000000000000000, 0.0000000000000000000, 0.0000000000000000000 ) ;
#70 = CYLINDRICAL_SURFACE ( 'NONE', #146, 0.3125000000000000000 ) ;
#71 = AXIS2_PLACEMENT_3D ( 'NONE', #136, #21, #158 ) ;
#72 = CIRCLE ( 'NONE', #202, 0.3125000000000000000 ) ;
#73 = EDGE_CURVE ( 'NONE', #171, #111, #214, .T. ) ;
#74 = FACE_OUTER_BOUND ( 'NONE', #241, .T. ) ;
#75 = PRODUCT_RELATED_PRODUCT_CATEGORY ( 'part', '', ( #52 ) ) ;
#76 = CONICAL_SURFACE ( 'NONE', #174, 0.2724999999999966300, 0.7853981633974824700 ) ;
#77 = CARTESIAN_POINT ( 'NONE',  ( -0.3125000000000000000, 3.827021247335477700E-017, -17.95999999999999000 ) ) ;
#78 = DIRECTION ( 'NONE',  ( 1.000000000000000000, 0.0000000000000000000, 0.0000000000000000000 ) ) ;
#79 = DIRECTION ( 'NONE',  ( 0.0000000000000000000, 0.0000000000000000000, -1.000000000000000000 ) ) ;
#80 = CARTESIAN_POINT ( 'NONE',  ( -0.3125000000000000000, 0.0000000000000000000, -17.95999999999999000 ) ) ;
#81 = AXIS2_PLACEMENT_3D ( 'NONE', #61, #197, #83 ) ;
#82 =( NAMED_UNIT ( * ) SI_UNIT ( $, .STERADIAN. ) SOLID_ANGLE_UNIT ( ) );
#83 = DIRECTION ( 'NONE',  ( 1.000000000000000000, 0.0000000000000000000, 0.0000000000000000000 ) ) ;
#84 = VECTOR ( 'NONE', #118, 39.37007874015748900 ) ;
#85 = DIRECTION ( 'NONE',  ( -0.0000000000000000000, -0.0000000000000000000, 1.000000000000000000 ) ) ;
#86 = DIRECTION ( 'NONE',  ( -0.0000000000000000000, -0.0000000000000000000, 1.000000000000000000 ) ) ;
#87 =( NAMED_UNIT ( * ) SI_UNIT ( $, .STERADIAN. ) SOLID_ANGLE_UNIT ( ) );
#88 = DIRECTION ( 'NONE',  ( 0.0000000000000000000, 0.0000000000000000000, 1.000000000000000000 ) ) ;
#89 = EDGE_CURVE ( 'NONE', #231, #171, #72, .T. ) ;
#90 = ADVANCED_FACE ( 'NONE', ( #178 ), #155, .F. ) ;
#91 = CIRCLE ( 'NONE', #246, 0.3125000000000000000 ) ;
#92 = COLOUR_RGB ( '',0.7921568627450980000, 0.8196078431372548800, 0.9333333333333333500 ) ;
#93 = ADVANCED_BREP_SHAPE_REPRESENTATION ( 'RPSS10-36', ( #113, #32 ), #184 ) ;
#94 = CARTESIAN_POINT ( 'NONE',  ( 0.0000000000000000000, 0.0000000000000000000, 18.00000000000000000 ) ) ;
#95 = CARTESIAN_POINT ( 'NONE',  ( 0.0000000000000000000, 0.0000000000000000000, 18.00000000000000000 ) ) ;
#96 = ORIENTED_EDGE ( 'NONE', *, *, #225, .F. ) ;
#97 = DIRECTION ( 'NONE',  ( -0.0000000000000000000, -0.0000000000000000000, -1.000000000000000000 ) ) ;
#98 = EDGE_CURVE ( 'NONE', #1, #231, #132, .T. ) ;
#99 = DIRECTION ( 'NONE',  ( 0.0000000000000000000, 0.0000000000000000000, 1.000000000000000000 ) ) ;
#100 = FILL_AREA_STYLE ('',( #175 ) ) ;
#101 = DIRECTION ( 'NONE',  ( 1.000000000000000000, 0.0000000000000000000, 0.0000000000000000000 ) ) ;
#102 = CARTESIAN_POINT ( 'NONE',  ( -0.2724999999999966300, 0.0000000000000000000, 18.00000000000000000 ) ) ;
#103 = ORIENTED_EDGE ( 'NONE', *, *, #6, .F. ) ;
#104 = ORIENTED_EDGE ( 'NONE', *, *, #89, .F. ) ;
#105 = APPLICATION_PROTOCOL_DEFINITION ( 'draft international standard', 'automotive_design', 1998, #125 ) ;
#106 = ADVANCED_FACE ( 'NONE', ( #229 ), #237, .T. ) ;
#107 = PRODUCT_CONTEXT ( 'NONE', #125, 'mechanical' ) ;
#108 = AXIS2_PLACEMENT_3D ( 'NONE', #180, #65, #198 ) ;
#109 = ORIENTED_EDGE ( 'NONE', *, *, #6, .T. ) ;
#110 = VERTEX_POINT ( 'NONE', #195 ) ;
#111 = VERTEX_POINT ( 'NONE', #80 ) ;
#112 = EDGE_CURVE ( 'NONE', #111, #150, #91, .T. ) ;
#113 = MANIFOLD_SOLID_BREP ( 'Chamfer1', #22 ) ;
#114 = FACE_OUTER_BOUND ( 'NONE', #131, .T. ) ;
#115 = FACE_OUTER_BOUND ( 'NONE', #148, .T. ) ;
#116 = EDGE_LOOP ( 'NONE', ( #239, #133, #11, #104 ) ) ;
#117 = DIRECTION ( 'NONE',  ( 0.0000000000000000000, 0.0000000000000000000, -1.000000000000000000 ) ) ;
#118 = DIRECTION ( 'NONE',  ( 0.7071067811865715500, 8.659560562355227400E-017, -0.7071067811865232600 ) ) ;
#119 = CARTESIAN_POINT ( 'NONE',  ( 0.2724999999999966300, 3.337162527676496200E-017, 18.00000000000000000 ) ) ;
#120 = LINE ( 'NONE', #102, #190 ) ;
#121 = AXIS2_PLACEMENT_3D ( 'NONE', #213, #230, #122 ) ;
#122 = DIRECTION ( 'NONE',  ( 1.000000000000000000, 0.0000000000000000000, -0.0000000000000000000 ) ) ;
#123 = LINE ( 'NONE', #154, #170 ) ;
#124 = ORIENTED_EDGE ( 'NONE', *, *, #238, .T. ) ;
#125 = APPLICATION_CONTEXT ( 'automotive_design' ) ;
#126 = APPLICATION_PROTOCOL_DEFINITION ( 'draft international standard', 'automotive_design', 1998, #233 ) ;
#127 = EDGE_CURVE ( 'NONE', #110, #1, #8, .T. ) ;
#128 = VECTOR ( 'NONE', #97, 39.37007874015748100 ) ;
#129 = LENGTH_MEASURE_WITH_UNIT ( LENGTH_MEASURE( 0.02539999999999999900 ), #181 );
#130 = AXIS2_PLACEMENT_3D ( 'NONE', #63, #85, #179 ) ;
#131 = EDGE_LOOP ( 'NONE', ( #124, #9, #14, #54 ) ) ;
#132 = LINE ( 'NONE', #119, #84 ) ;
#133 = ORIENTED_EDGE ( 'NONE', *, *, #127, .F. ) ;
#134 = EDGE_CURVE ( 'NONE', #205, #161, #31, .T. ) ;
#135 = DIRECTION ( 'NONE',  ( -0.0000000000000000000, -0.0000000000000000000, 1.000000000000000000 ) ) ;
#136 = CARTESIAN_POINT ( 'NONE',  ( 0.0000000000000000000, 0.0000000000000000000, 18.00000000000000000 ) ) ;
#137 = SURFACE_STYLE_FILL_AREA ( #100 ) ;
#138 = UNCERTAINTY_MEASURE_WITH_UNIT (LENGTH_MEASURE( 1.000000000000000100E-005 ), #67, 'distance_accuracy_value', 'NONE');
#139 = CARTESIAN_POINT ( 'NONE',  ( 0.0000000000000000000, 0.0000000000000000000, 18.00000000000000000 ) ) ;
#140 = CARTESIAN_POINT ( 'NONE',  ( 0.3125000000000000000, 3.827021247335478900E-017, 17.96000000000000100 ) ) ;
#141 = FILL_AREA_STYLE_COLOUR ( '', #92 ) ;
#142 = EDGE_LOOP ( 'NONE', ( #200, #236, #160, #55 ) ) ;
#143 = SURFACE_SIDE_STYLE ('',( #144 ) ) ;
#144 = SURFACE_STYLE_FILL_AREA ( #5 ) ;
#145 = EDGE_LOOP ( 'NONE', ( #203, #33 ) ) ;
#146 = AXIS2_PLACEMENT_3D ( 'NONE', #139, #159, #248 ) ;
#147 = CARTESIAN_POINT ( 'NONE',  ( 0.0000000000000000000, 0.0000000000000000000, 18.00000000000000000 ) ) ;
#148 = EDGE_LOOP ( 'NONE', ( #103, #188, #4, #51 ) ) ;
#149 = AXIS2_PLACEMENT_3D ( 'NONE', #94, #34, #172 ) ;
#150 = VERTEX_POINT ( 'NONE', #58 ) ;
#151 = DIRECTION ( 'NONE',  ( -0.0000000000000000000, -0.0000000000000000000, -1.000000000000000000 ) ) ;
#152 = EDGE_LOOP ( 'NONE', ( #168, #109 ) ) ;
#153 = ORIENTED_EDGE ( 'NONE', *, *, #43, .T. ) ;
#154 = CARTESIAN_POINT ( 'NONE',  ( 0.3125000000000000000, 0.0000000000000000000, -17.95999999999999000 ) ) ;
#155 = PLANE ( 'NONE',  #235 ) ;
#156 = SURFACE_SIDE_STYLE ('',( #137 ) ) ;
#157 = AXIS2_PLACEMENT_3D ( 'NONE', #40, #86, #101 ) ;
#158 = DIRECTION ( 'NONE',  ( 1.000000000000000000, 0.0000000000000000000, 0.0000000000000000000 ) ) ;
#159 = DIRECTION ( 'NONE',  ( -0.0000000000000000000, -0.0000000000000000000, -1.000000000000000000 ) ) ;
#160 = ORIENTED_EDGE ( 'NONE', *, *, #73, .T. ) ;
#161 = VERTEX_POINT ( 'NONE', #177 ) ;
#162 = DIRECTION ( 'NONE',  ( 0.0000000000000000000, 0.0000000000000000000, -1.000000000000000000 ) ) ;
#163 =( LENGTH_UNIT ( ) NAMED_UNIT ( * ) SI_UNIT ( $, .METRE. ) );
#164 = ADVANCED_FACE ( 'NONE', ( #59 ), #39, .T. ) ;
#165 = AXIS2_PLACEMENT_3D ( 'NONE', #56, #193, #78 ) ;
#166 = FACE_OUTER_BOUND ( 'NONE', #208, .T. ) ;
#167 = LINE ( 'NONE', #77, #10 ) ;
#168 = ORIENTED_EDGE ( 'NONE', *, *, #127, .T. ) ;
#169 = AXIS2_PLACEMENT_3D ( 'NONE', #24, #162, #41 ) ;
#170 = VECTOR ( 'NONE', #173, 39.37007874015748900 ) ;
#171 = VERTEX_POINT ( 'NONE', #212 ) ;
#172 = DIRECTION ( 'NONE',  ( 1.000000000000000000, 0.0000000000000000000, 0.0000000000000000000 ) ) ;
#173 = DIRECTION ( 'NONE',  ( 0.7071067811865330300, 0.0000000000000000000, 0.7071067811865618900 ) ) ;
#174 = AXIS2_PLACEMENT_3D ( 'NONE', #95, #117, #209 ) ;
#175 = FILL_AREA_STYLE_COLOUR ( '', #187 ) ;
#176 =( LENGTH_UNIT ( ) NAMED_UNIT ( * ) SI_UNIT ( $, .METRE. ) );
#177 = CARTESIAN_POINT ( 'NONE',  ( -0.2724999999999922500, 3.582091887505960100E-017, -18.00000000000000000 ) ) ;
#178 = FACE_OUTER_BOUND ( 'NONE', #145, .T. ) ;
#179 = DIRECTION ( 'NONE',  ( 1.000000000000000000, 0.0000000000000000000, 0.0000000000000000000 ) ) ;
#180 = CARTESIAN_POINT ( 'NONE',  ( 0.0000000000000000000, 0.0000000000000000000, -18.00000000000000000 ) ) ;
#181 =( LENGTH_UNIT ( ) NAMED_UNIT ( * ) SI_UNIT ( $, .METRE. ) );
#182 =( NAMED_UNIT ( * ) PLANE_ANGLE_UNIT ( ) SI_UNIT ( $, .RADIAN. ) );
#183 = ADVANCED_FACE ( 'NONE', ( #114 ), #70, .T. ) ;
#184 =( GEOMETRIC_REPRESENTATION_CONTEXT ( 3 ) GLOBAL_UNCERTAINTY_ASSIGNED_CONTEXT ( ( #138 ) ) GLOBAL_UNIT_ASSIGNED_CONTEXT ( ( #67, #199, #87 ) ) REPRESENTATION_CONTEXT ( 'NONE', 'WORKASPACE' ) );
#185 = DIMENSIONAL_EXPONENTS ( 1.000000000000000000, 0.0000000000000000000, 0.0000000000000000000, 0.0000000000000000000, 0.0000000000000000000, 0.0000000000000000000, 0.0000000000000000000 ) ;
#186 = UNCERTAINTY_MEASURE_WITH_UNIT (LENGTH_MEASURE( 1.000000000000000100E-005 ), #60, 'distance_accuracy_value', 'NONE');
#187 = COLOUR_RGB ( '',0.7921568627450980000, 0.8196078431372548800, 0.9333333333333333500 ) ;
#188 = ORIENTED_EDGE ( 'NONE', *, *, #98, .T. ) ;
#189 = AXIS2_PLACEMENT_3D ( 'NONE', #147, #151, #224 ) ;
#190 = VECTOR ( 'NONE', #249, 39.37007874015748900 ) ;
#191 = DIRECTION ( 'NONE',  ( -0.7071067811865330300, 8.659560562354755400E-017, 0.7071067811865618900 ) ) ;
#192 = PRESENTATION_STYLE_ASSIGNMENT (( #25 ) ) ;
#193 = DIRECTION ( 'NONE',  ( -0.0000000000000000000, -0.0000000000000000000, 1.000000000000000000 ) ) ;
#194 = CARTESIAN_POINT ( 'NONE',  ( 0.0000000000000000000, 0.0000000000000000000, 17.96000000000000100 ) ) ;
#195 = CARTESIAN_POINT ( 'NONE',  ( -0.2724999999999966300, 0.0000000000000000000, 18.00000000000000000 ) ) ;
#196 =( NAMED_UNIT ( * ) PLANE_ANGLE_UNIT ( ) SI_UNIT ( $, .RADIAN. ) );
#197 = DIRECTION ( 'NONE',  ( -0.0000000000000000000, -0.0000000000000000000, -1.000000000000000000 ) ) ;
#198 = DIRECTION ( 'NONE',  ( 1.000000000000000000, 0.0000000000000000000, 0.0000000000000000000 ) ) ;
#199 =( NAMED_UNIT ( * ) PLANE_ANGLE_UNIT ( ) SI_UNIT ( $, .RADIAN. ) );
#200 = ORIENTED_EDGE ( 'NONE', *, *, #57, .F. ) ;
#201 = ADVANCED_FACE ( 'NONE', ( #166 ), #18, .T. ) ;
#202 = AXIS2_PLACEMENT_3D ( 'NONE', #194, #79, #210 ) ;
#203 = ORIENTED_EDGE ( 'NONE', *, *, #134, .T. ) ;
#204 = ORIENTED_EDGE ( 'NONE', *, *, #16, .F. ) ;
#205 = VERTEX_POINT ( 'NONE', #232 ) ;
#206 = STYLED_ITEM ( 'NONE', ( #192 ), #93 ) ;
#207 = ORIENTED_EDGE ( 'NONE', *, *, #30, .F. ) ;
#208 = EDGE_LOOP ( 'NONE', ( #96, #45, #207, #66 ) ) ;
#209 = DIRECTION ( 'NONE',  ( -1.000000000000000000, 0.0000000000000000000, 0.0000000000000000000 ) ) ;
#210 = DIRECTION ( 'NONE',  ( 1.000000000000000000, 0.0000000000000000000, 0.0000000000000000000 ) ) ;
#211 = CIRCLE ( 'NONE', #108, 0.2724999999999922500 ) ;
#212 = CARTESIAN_POINT ( 'NONE',  ( -0.3125000000000000000, 0.0000000000000000000, 17.96000000000000100 ) ) ;
#213 = CARTESIAN_POINT ( 'NONE',  ( 0.0000000000000000000, 0.0000000000000000000, 18.00000000000000000 ) ) ;
#214 = LINE ( 'NONE', #243, #223 ) ;
#215 = EDGE_CURVE ( 'NONE', #110, #171, #120, .T. ) ;
#216 = DIRECTION ( 'NONE',  ( 1.000000000000000000, 0.0000000000000000000, 0.0000000000000000000 ) ) ;
#217 = PRODUCT_DEFINITION_SHAPE ( 'NONE', 'NONE',  #47 ) ;
#218 = PRESENTATION_LAYER_ASSIGNMENT (  '', '', ( #206 ) ) ;
#219 = LINE ( 'NONE', #35, #128 ) ;
#220 = CIRCLE ( 'NONE', #169, 0.3125000000000000000 ) ;
#221 = AXIS2_PLACEMENT_3D ( 'NONE', #36, #245, #19 ) ;
#222 = FACE_OUTER_BOUND ( 'NONE', #142, .T. ) ;
#223 = VECTOR ( 'NONE', #244, 39.37007874015748100 ) ;
#224 = DIRECTION ( 'NONE',  ( -1.000000000000000000, 0.0000000000000000000, 0.0000000000000000000 ) ) ;
#225 = EDGE_CURVE ( 'NONE', #161, #205, #211, .T. ) ;
#226 = PRODUCT_DEFINITION_CONTEXT ( 'detailed design', #233, 'design' ) ;
#227 = DIRECTION ( 'NONE',  ( 1.000000000000000000, 0.0000000000000000000, -0.0000000000000000000 ) ) ;
#228 = MECHANICAL_DESIGN_GEOMETRIC_PRESENTATION_REPRESENTATION (  '', ( #206 ), #240 ) ;
#229 = FACE_OUTER_BOUND ( 'NONE', #116, .T. ) ;
#230 = DIRECTION ( 'NONE',  ( 0.0000000000000000000, 0.0000000000000000000, 1.000000000000000000 ) ) ;
#231 = VERTEX_POINT ( 'NONE', #140 ) ;
#232 = CARTESIAN_POINT ( 'NONE',  ( 0.2724999999999922500, 0.0000000000000000000, -18.00000000000000000 ) ) ;
#233 = APPLICATION_CONTEXT ( 'automotive_design' ) ;
#234 = ADVANCED_FACE ( 'NONE', ( #74 ), #27, .T. ) ;
#235 = AXIS2_PLACEMENT_3D ( 'NONE', #17, #99, #227 ) ;
#236 = ORIENTED_EDGE ( 'NONE', *, *, #89, .T. ) ;
#237 = CONICAL_SURFACE ( 'NONE', #221, 0.2724999999999966300, 0.7853981633974824700 ) ;
#238 = EDGE_CURVE ( 'NONE', #171, #231, #220, .T. ) ;
#239 = ORIENTED_EDGE ( 'NONE', *, *, #98, .F. ) ;
#240 =( GEOMETRIC_REPRESENTATION_CONTEXT ( 3 ) GLOBAL_UNCERTAINTY_ASSIGNED_CONTEXT ( ( #48 ) ) GLOBAL_UNIT_ASSIGNED_CONTEXT ( ( #42, #182, #68 ) ) REPRESENTATION_CONTEXT ( 'NONE', 'WORKASPACE' ) );
#241 = EDGE_LOOP ( 'NONE', ( #204, #49, #153, #242 ) ) ;
#242 = ORIENTED_EDGE ( 'NONE', *, *, #112, .F. ) ;
#243 = CARTESIAN_POINT ( 'NONE',  ( -0.3125000000000000000, 0.0000000000000000000, 18.00000000000000000 ) ) ;
#244 = DIRECTION ( 'NONE',  ( -0.0000000000000000000, -0.0000000000000000000, -1.000000000000000000 ) ) ;
#245 = DIRECTION ( 'NONE',  ( 0.0000000000000000000, 0.0000000000000000000, -1.000000000000000000 ) ) ;
#246 = AXIS2_PLACEMENT_3D ( 'NONE', #247, #135, #20 ) ;
#247 = CARTESIAN_POINT ( 'NONE',  ( 0.0000000000000000000, 0.0000000000000000000, -17.95999999999999000 ) ) ;
#248 = DIRECTION ( 'NONE',  ( -1.000000000000000000, 0.0000000000000000000, 0.0000000000000000000 ) ) ;
#249 = DIRECTION ( 'NONE',  ( -0.7071067811865715500, 0.0000000000000000000, -0.7071067811865232600 ) ) ;
ENDSEC;
END-ISO-10303-21;
