ISO-10303-21;
HEADER;
FILE_DESCRIPTION (( 'STEP AP214' ),
    '1' );
FILE_NAME ('RPSS12-12.step',
    '2017-08-09T17:47:06',
    ( '' ),
    ( '' ),
    'SwSTEP 2.0',
    'SolidWorks 2017',
    '' );
FILE_SCHEMA (( 'AUTOMOTIVE_DESIGN' ));
ENDSEC;

DATA;
#1 = FACE_OUTER_BOUND ( 'NONE', #79, .T. ) ;
#2 = ADVANCED_FACE ( 'NONE', ( #35 ), #131, .T. ) ;
#3 =( GEOMETRIC_REPRESENTATION_CONTEXT ( 3 ) GLOBAL_UNCERTAINTY_ASSIGNED_CONTEXT ( ( #143 ) ) GLOBAL_UNIT_ASSIGNED_CONTEXT ( ( #163, #49, #187 ) ) REPRESENTATION_CONTEXT ( 'NONE', 'WORKASPACE' ) );
#4 = DIMENSIONAL_EXPONENTS ( 1.000000000000000000, 0.0000000000000000000, 0.0000000000000000000, 0.0000000000000000000, 0.0000000000000000000, 0.0000000000000000000, 0.0000000000000000000 ) ;
#5 = UNCERTAINTY_MEASURE_WITH_UNIT (LENGTH_MEASURE( 1.000000000000000100E-005 ), #221, 'distance_accuracy_value', 'NONE');
#6 = APPLICATION_PROTOCOL_DEFINITION ( 'draft international standard', 'automotive_design', 1998, #124 ) ;
#7 = VECTOR ( 'NONE', #33, 39.37007874015748100 ) ;
#8 = CARTESIAN_POINT ( 'NONE',  ( 0.3350000000000071300, 4.347496136973148500E-017, 6.000000000000000900 ) ) ;
#9 = DIRECTION ( 'NONE',  ( 1.000000000000000000, 0.0000000000000000000, -0.0000000000000000000 ) ) ;
#10 = DIRECTION ( 'NONE',  ( 1.000000000000000000, 0.0000000000000000000, 0.0000000000000000000 ) ) ;
#11 = SURFACE_SIDE_STYLE ('',( #169 ) ) ;
#12 = ORIENTED_EDGE ( 'NONE', *, *, #80, .F. ) ;
#13 = DIRECTION ( 'NONE',  ( -1.000000000000000000, 0.0000000000000000000, 0.0000000000000000000 ) ) ;
#14 = CARTESIAN_POINT ( 'NONE',  ( -0.3750000000000000600, 4.592425496802573600E-017, -5.959999999999991100 ) ) ;
#15 = CARTESIAN_POINT ( 'NONE',  ( -0.3750000000000000600, 0.0000000000000000000, -5.959999999999989300 ) ) ;
#16 = EDGE_CURVE ( 'NONE', #91, #162, #177, .T. ) ;
#17 = CIRCLE ( 'NONE', #246, 0.3750000000000000600 ) ;
#18 = DIRECTION ( 'NONE',  ( 1.000000000000000000, 0.0000000000000000000, 0.0000000000000000000 ) ) ;
#19 = DIRECTION ( 'NONE',  ( 1.000000000000000000, 0.0000000000000000000, 0.0000000000000000000 ) ) ;
#20 = LINE ( 'NONE', #14, #58 ) ;
#21 = ORIENTED_EDGE ( 'NONE', *, *, #121, .F. ) ;
#22 = DIRECTION ( 'NONE',  ( 1.000000000000000000, 0.0000000000000000000, 0.0000000000000000000 ) ) ;
#23 = CARTESIAN_POINT ( 'NONE',  ( -0.3750000000000000600, 0.0000000000000000000, 6.000000000000000900 ) ) ;
#24 = EDGE_CURVE ( 'NONE', #192, #128, #29, .T. ) ;
#25 = ORIENTED_EDGE ( 'NONE', *, *, #16, .F. ) ;
#26 = FILL_AREA_STYLE_COLOUR ( '', #213 ) ;
#27 =( LENGTH_UNIT ( ) NAMED_UNIT ( * ) SI_UNIT ( $, .METRE. ) );
#28 = DIRECTION ( 'NONE',  ( 0.0000000000000000000, 0.0000000000000000000, 1.000000000000000000 ) ) ;
#29 = CIRCLE ( 'NONE', #186, 0.3350000000000071300 ) ;
#30 = FACE_OUTER_BOUND ( 'NONE', #198, .T. ) ;
#31 = MANIFOLD_SOLID_BREP ( 'Chamfer1', #228 ) ;
#32 = DIRECTION ( 'NONE',  ( -1.000000000000000000, 0.0000000000000000000, 0.0000000000000000000 ) ) ;
#33 = DIRECTION ( 'NONE',  ( 0.7071067811865368000, 0.0000000000000000000, 0.7071067811865583400 ) ) ;
#34 = AXIS2_PLACEMENT_3D ( 'NONE', #225, #152, #32 ) ;
#35 = FACE_OUTER_BOUND ( 'NONE', #148, .T. ) ;
#36 = SURFACE_SIDE_STYLE ('',( #135 ) ) ;
#37 = LINE ( 'NONE', #117, #234 ) ;
#38 = CONICAL_SURFACE ( 'NONE', #166, 0.3750000000000000600, 0.7853981633974329600 ) ;
#39 = ORIENTED_EDGE ( 'NONE', *, *, #134, .F. ) ;
#40 = EDGE_CURVE ( 'NONE', #101, #73, #20, .T. ) ;
#41 = ORIENTED_EDGE ( 'NONE', *, *, #56, .T. ) ;
#42 = DIMENSIONAL_EXPONENTS ( 1.000000000000000000, 0.0000000000000000000, 0.0000000000000000000, 0.0000000000000000000, 0.0000000000000000000, 0.0000000000000000000, 0.0000000000000000000 ) ;
#43 = AXIS2_PLACEMENT_3D ( 'NONE', #109, #210, #104 ) ;
#44 = CARTESIAN_POINT ( 'NONE',  ( 0.3750000000000000600, 4.592425496802573600E-017, 5.960000000000006200 ) ) ;
#45 = CARTESIAN_POINT ( 'NONE',  ( 0.0000000000000000000, 0.0000000000000000000, -5.959999999999991100 ) ) ;
#46 = CARTESIAN_POINT ( 'NONE',  ( 0.0000000000000000000, 0.0000000000000000000, -6.000000000000000900 ) ) ;
#47 =( LENGTH_UNIT ( ) NAMED_UNIT ( * ) SI_UNIT ( $, .METRE. ) );
#48 = DIRECTION ( 'NONE',  ( 0.0000000000000000000, 0.0000000000000000000, -1.000000000000000000 ) ) ;
#49 =( NAMED_UNIT ( * ) PLANE_ANGLE_UNIT ( ) SI_UNIT ( $, .RADIAN. ) );
#50 = CARTESIAN_POINT ( 'NONE',  ( 0.0000000000000000000, 0.0000000000000000000, 6.000000000000000900 ) ) ;
#51 = AXIS2_PLACEMENT_3D ( 'NONE', #237, #126, #9 ) ;
#52 = VERTEX_POINT ( 'NONE', #168 ) ;
#53 = UNCERTAINTY_MEASURE_WITH_UNIT (LENGTH_MEASURE( 1.000000000000000100E-005 ), #183, 'distance_accuracy_value', 'NONE');
#54 = ORIENTED_EDGE ( 'NONE', *, *, #96, .T. ) ;
#55 = DIRECTION ( 'NONE',  ( -0.0000000000000000000, -0.0000000000000000000, -1.000000000000000000 ) ) ;
#56 = EDGE_CURVE ( 'NONE', #173, #73, #17, .T. ) ;
#57 = ORIENTED_EDGE ( 'NONE', *, *, #134, .T. ) ;
#58 = VECTOR ( 'NONE', #149, 39.37007874015748100 ) ;
#59 =( LENGTH_UNIT ( ) NAMED_UNIT ( * ) SI_UNIT ( $, .METRE. ) );
#60 = PRODUCT_DEFINITION ( 'UNKNOWN', '', #74, #211 ) ;
#61 = LENGTH_MEASURE_WITH_UNIT ( LENGTH_MEASURE( 0.02539999999999999900 ), #59 );
#62 = FILL_AREA_STYLE_COLOUR ( '', #95 ) ;
#63 = FACE_OUTER_BOUND ( 'NONE', #243, .T. ) ;
#64 = LENGTH_MEASURE_WITH_UNIT ( LENGTH_MEASURE( 0.02539999999999999900 ), #27 );
#65 = ORIENTED_EDGE ( 'NONE', *, *, #223, .T. ) ;
#66 = AXIS2_PLACEMENT_3D ( 'NONE', #161, #48, #185 ) ;
#67 = ADVANCED_FACE ( 'NONE', ( #1 ), #144, .T. ) ;
#68 = CARTESIAN_POINT ( 'NONE',  ( 0.3750000000000000600, 4.592425496802573600E-017, -5.959999999999989300 ) ) ;
#69 = CARTESIAN_POINT ( 'NONE',  ( -0.3350000000000071300, 0.0000000000000000000, 6.000000000000000900 ) ) ;
#70 = CARTESIAN_POINT ( 'NONE',  ( 0.0000000000000000000, 0.0000000000000000000, 6.000000000000000900 ) ) ;
#71 = EDGE_CURVE ( 'NONE', #52, #173, #164, .T. ) ;
#72 =( NAMED_UNIT ( * ) PLANE_ANGLE_UNIT ( ) SI_UNIT ( $, .RADIAN. ) );
#73 = VERTEX_POINT ( 'NONE', #15 ) ;
#74 = PRODUCT_DEFINITION_FORMATION_WITH_SPECIFIED_SOURCE ( 'ANY', '', #93, .NOT_KNOWN. ) ;
#75 = CONICAL_SURFACE ( 'NONE', #119, 0.3350000000000071300, 0.7853981633974329600 ) ;
#76 = FACE_OUTER_BOUND ( 'NONE', #247, .T. ) ;
#77 = AXIS2_PLACEMENT_3D ( 'NONE', #46, #215, #110 ) ;
#78 = CARTESIAN_POINT ( 'NONE',  ( 0.0000000000000000000, 0.0000000000000000000, 5.960000000000006200 ) ) ;
#79 = EDGE_LOOP ( 'NONE', ( #87, #151, #41, #155 ) ) ;
#80 = EDGE_CURVE ( 'NONE', #162, #173, #37, .T. ) ;
#81 = ADVANCED_FACE ( 'NONE', ( #242 ), #107, .T. ) ;
#82 = ORIENTED_EDGE ( 'NONE', *, *, #145, .T. ) ;
#83 = PRODUCT_RELATED_PRODUCT_CATEGORY ( 'part', '', ( #93 ) ) ;
#84 = VECTOR ( 'NONE', #182, 39.37007874015748100 ) ;
#85 = DIRECTION ( 'NONE',  ( -0.0000000000000000000, -0.0000000000000000000, -1.000000000000000000 ) ) ;
#86 = PLANE ( 'NONE',  #77 ) ;
#87 = ORIENTED_EDGE ( 'NONE', *, *, #16, .T. ) ;
#88 = CARTESIAN_POINT ( 'NONE',  ( 0.0000000000000000000, 0.0000000000000000000, -5.959999999999989300 ) ) ;
#89 = DIRECTION ( 'NONE',  ( -1.000000000000000000, 0.0000000000000000000, 0.0000000000000000000 ) ) ;
#90 = AXIS2_PLACEMENT_3D ( 'NONE', #88, #218, #112 ) ;
#91 = VERTEX_POINT ( 'NONE', #160 ) ;
#92 = CIRCLE ( 'NONE', #90, 0.3750000000000000600 ) ;
#93 = PRODUCT ( 'RPSS12-12', 'RPSS12-12', '', ( #233 ) ) ;
#94 = DIRECTION ( 'NONE',  ( -0.0000000000000000000, -0.0000000000000000000, 1.000000000000000000 ) ) ;
#95 = COLOUR_RGB ( '',0.7921568627450980000, 0.8196078431372548800, 0.9333333333333333500 ) ;
#96 = EDGE_CURVE ( 'NONE', #91, #73, #189, .T. ) ;
#97 = ORIENTED_EDGE ( 'NONE', *, *, #223, .F. ) ;
#98 = DIRECTION ( 'NONE',  ( 1.000000000000000000, 0.0000000000000000000, 0.0000000000000000000 ) ) ;
#99 = ADVANCED_BREP_SHAPE_REPRESENTATION ( 'RPSS12-12', ( #31, #43 ), #195 ) ;
#100 = SHAPE_DEFINITION_REPRESENTATION ( #116, #99 ) ;
#101 = VERTEX_POINT ( 'NONE', #201 ) ;
#102 = AXIS2_PLACEMENT_3D ( 'NONE', #147, #28, #165 ) ;
#103 = ADVANCED_FACE ( 'NONE', ( #108 ), #86, .F. ) ;
#104 = DIRECTION ( 'NONE',  ( 1.000000000000000000, 0.0000000000000000000, 0.0000000000000000000 ) ) ;
#105 = ORIENTED_EDGE ( 'NONE', *, *, #24, .F. ) ;
#106 = DIRECTION ( 'NONE',  ( 0.7071067811865365800, 8.659560562354799700E-017, -0.7071067811865583400 ) ) ;
#107 = PLANE ( 'NONE',  #51 ) ;
#108 = FACE_OUTER_BOUND ( 'NONE', #118, .T. ) ;
#109 = CARTESIAN_POINT ( 'NONE',  ( 0.0000000000000000000, 0.0000000000000000000, 0.0000000000000000000 ) ) ;
#110 = DIRECTION ( 'NONE',  ( 1.000000000000000000, 0.0000000000000000000, -0.0000000000000000000 ) ) ;
#111 = EDGE_CURVE ( 'NONE', #162, #91, #196, .T. ) ;
#112 = DIRECTION ( 'NONE',  ( 1.000000000000000000, 0.0000000000000000000, 0.0000000000000000000 ) ) ;
#113 = ORIENTED_EDGE ( 'NONE', *, *, #249, .F. ) ;
#114 = CARTESIAN_POINT ( 'NONE',  ( 0.0000000000000000000, 0.0000000000000000000, -6.000000000000000900 ) ) ;
#115 =( NAMED_UNIT ( * ) SI_UNIT ( $, .STERADIAN. ) SOLID_ANGLE_UNIT ( ) );
#116 = PRODUCT_DEFINITION_SHAPE ( 'NONE', 'NONE',  #60 ) ;
#117 = CARTESIAN_POINT ( 'NONE',  ( 0.3750000000000000600, 4.592425496802573600E-017, 6.000000000000000900 ) ) ;
#118 = EDGE_LOOP ( 'NONE', ( #82, #139 ) ) ;
#119 = AXIS2_PLACEMENT_3D ( 'NONE', #70, #241, #13 ) ;
#120 = PRESENTATION_STYLE_ASSIGNMENT (( #146 ) ) ;
#121 = EDGE_CURVE ( 'NONE', #73, #173, #92, .T. ) ;
#122 = ORIENTED_EDGE ( 'NONE', *, *, #40, .F. ) ;
#123 = DIMENSIONAL_EXPONENTS ( 1.000000000000000000, 0.0000000000000000000, 0.0000000000000000000, 0.0000000000000000000, 0.0000000000000000000, 0.0000000000000000000, 0.0000000000000000000 ) ;
#124 = APPLICATION_CONTEXT ( 'automotive_design' ) ;
#125 = DIRECTION ( 'NONE',  ( -0.0000000000000000000, -0.0000000000000000000, 1.000000000000000000 ) ) ;
#126 = DIRECTION ( 'NONE',  ( 0.0000000000000000000, 0.0000000000000000000, 1.000000000000000000 ) ) ;
#127 = DIRECTION ( 'NONE',  ( -0.0000000000000000000, -0.0000000000000000000, -1.000000000000000000 ) ) ;
#128 = VERTEX_POINT ( 'NONE', #214 ) ;
#129 = FILL_AREA_STYLE ('',( #26 ) ) ;
#130 = AXIS2_PLACEMENT_3D ( 'NONE', #114, #55, #245 ) ;
#131 = CONICAL_SURFACE ( 'NONE', #157, 0.3750000000000000600, 0.7853981633974329600 ) ;
#132 =( NAMED_UNIT ( * ) PLANE_ANGLE_UNIT ( ) SI_UNIT ( $, .RADIAN. ) );
#133 = ORIENTED_EDGE ( 'NONE', *, *, #71, .T. ) ;
#134 = EDGE_CURVE ( 'NONE', #128, #192, #137, .T. ) ;
#135 = SURFACE_STYLE_FILL_AREA ( #154 ) ;
#136 = DIRECTION ( 'NONE',  ( 0.0000000000000000000, 0.0000000000000000000, 1.000000000000000000 ) ) ;
#137 = CIRCLE ( 'NONE', #102, 0.3350000000000071300 ) ;
#138 = DIRECTION ( 'NONE',  ( -0.0000000000000000000, -0.0000000000000000000, 1.000000000000000000 ) ) ;
#139 = ORIENTED_EDGE ( 'NONE', *, *, #238, .T. ) ;
#140 = CIRCLE ( 'NONE', #130, 0.3349999999999918600 ) ;
#141 = AXIS2_PLACEMENT_3D ( 'NONE', #50, #220, #89 ) ;
#142 = ADVANCED_FACE ( 'NONE', ( #63 ), #75, .T. ) ;
#143 = UNCERTAINTY_MEASURE_WITH_UNIT (LENGTH_MEASURE( 1.000000000000000100E-005 ), #163, 'distance_accuracy_value', 'NONE');
#144 = CYLINDRICAL_SURFACE ( 'NONE', #34, 0.3750000000000000600 ) ;
#145 = EDGE_CURVE ( 'NONE', #52, #101, #140, .T. ) ;
#146 = SURFACE_STYLE_USAGE ( .BOTH. , #11 ) ;
#147 = CARTESIAN_POINT ( 'NONE',  ( 0.0000000000000000000, 0.0000000000000000000, 6.000000000000000900 ) ) ;
#148 = EDGE_LOOP ( 'NONE', ( #122, #231, #133, #21 ) ) ;
#149 = DIRECTION ( 'NONE',  ( -0.7071067811865368000, 8.659560562354801000E-017, 0.7071067811865583400 ) ) ;
#150 = CARTESIAN_POINT ( 'NONE',  ( 0.3750000000000000600, 0.0000000000000000000, -5.959999999999991100 ) ) ;
#151 = ORIENTED_EDGE ( 'NONE', *, *, #80, .T. ) ;
#152 = DIRECTION ( 'NONE',  ( -0.0000000000000000000, -0.0000000000000000000, -1.000000000000000000 ) ) ;
#153 = AXIS2_PLACEMENT_3D ( 'NONE', #239, #127, #10 ) ;
#154 = FILL_AREA_STYLE ('',( #62 ) ) ;
#155 = ORIENTED_EDGE ( 'NONE', *, *, #96, .F. ) ;
#156 = FACE_OUTER_BOUND ( 'NONE', #194, .T. ) ;
#157 = AXIS2_PLACEMENT_3D ( 'NONE', #197, #138, #18 ) ;
#158 = EDGE_LOOP ( 'NONE', ( #57, #170 ) ) ;
#159 = ADVANCED_FACE ( 'NONE', ( #156 ), #184, .T. ) ;
#160 = CARTESIAN_POINT ( 'NONE',  ( -0.3750000000000000600, 0.0000000000000000000, 5.960000000000006200 ) ) ;
#161 = CARTESIAN_POINT ( 'NONE',  ( 0.0000000000000000000, 0.0000000000000000000, 5.960000000000006200 ) ) ;
#162 = VERTEX_POINT ( 'NONE', #44 ) ;
#163 =( CONVERSION_BASED_UNIT ( 'INCH', #64 ) LENGTH_UNIT ( ) NAMED_UNIT ( #4 ) );
#164 = LINE ( 'NONE', #150, #7 ) ;
#165 = DIRECTION ( 'NONE',  ( 1.000000000000000000, 0.0000000000000000000, 0.0000000000000000000 ) ) ;
#166 = AXIS2_PLACEMENT_3D ( 'NONE', #45, #125, #22 ) ;
#167 = CIRCLE ( 'NONE', #153, 0.3349999999999918600 ) ;
#168 = CARTESIAN_POINT ( 'NONE',  ( 0.3349999999999918600, 0.0000000000000000000, -6.000000000000000900 ) ) ;
#169 = SURFACE_STYLE_FILL_AREA ( #129 ) ;
#170 = ORIENTED_EDGE ( 'NONE', *, *, #24, .T. ) ;
#171 = AXIS2_PLACEMENT_3D ( 'NONE', #78, #207, #98 ) ;
#172 = SURFACE_STYLE_USAGE ( .BOTH. , #36 ) ;
#173 = VERTEX_POINT ( 'NONE', #68 ) ;
#174 = VECTOR ( 'NONE', #106, 39.37007874015748900 ) ;
#175 = ADVANCED_FACE ( 'NONE', ( #30 ), #193, .T. ) ;
#176 = AXIS2_PLACEMENT_3D ( 'NONE', #178, #85, #212 ) ;
#177 = CIRCLE ( 'NONE', #171, 0.3750000000000000600 ) ;
#178 = CARTESIAN_POINT ( 'NONE',  ( 0.0000000000000000000, 0.0000000000000000000, 6.000000000000000900 ) ) ;
#179 = LENGTH_MEASURE_WITH_UNIT ( LENGTH_MEASURE( 0.02539999999999999900 ), #47 );
#180 = DIRECTION ( 'NONE',  ( -0.7071067811865365800, 0.0000000000000000000, -0.7071067811865583400 ) ) ;
#181 = ORIENTED_EDGE ( 'NONE', *, *, #40, .T. ) ;
#182 = DIRECTION ( 'NONE',  ( -0.0000000000000000000, -0.0000000000000000000, -1.000000000000000000 ) ) ;
#183 =( CONVERSION_BASED_UNIT ( 'INCH', #179 ) LENGTH_UNIT ( ) NAMED_UNIT ( #42 ) );
#184 = CONICAL_SURFACE ( 'NONE', #141, 0.3350000000000071300, 0.7853981633974329600 ) ;
#185 = DIRECTION ( 'NONE',  ( 1.000000000000000000, 0.0000000000000000000, 0.0000000000000000000 ) ) ;
#186 = AXIS2_PLACEMENT_3D ( 'NONE', #248, #136, #19 ) ;
#187 =( NAMED_UNIT ( * ) SI_UNIT ( $, .STERADIAN. ) SOLID_ANGLE_UNIT ( ) );
#188 = ORIENTED_EDGE ( 'NONE', *, *, #238, .F. ) ;
#189 = LINE ( 'NONE', #23, #84 ) ;
#190 = VECTOR ( 'NONE', #180, 39.37007874015748900 ) ;
#191 = DIRECTION ( 'NONE',  ( -0.0000000000000000000, -0.0000000000000000000, -1.000000000000000000 ) ) ;
#192 = VERTEX_POINT ( 'NONE', #8 ) ;
#193 = CYLINDRICAL_SURFACE ( 'NONE', #176, 0.3750000000000000600 ) ;
#194 = EDGE_LOOP ( 'NONE', ( #105, #65, #25, #113 ) ) ;
#195 =( GEOMETRIC_REPRESENTATION_CONTEXT ( 3 ) GLOBAL_UNCERTAINTY_ASSIGNED_CONTEXT ( ( #53 ) ) GLOBAL_UNIT_ASSIGNED_CONTEXT ( ( #183, #72, #202 ) ) REPRESENTATION_CONTEXT ( 'NONE', 'WORKASPACE' ) );
#196 = CIRCLE ( 'NONE', #66, 0.3750000000000000600 ) ;
#197 = CARTESIAN_POINT ( 'NONE',  ( 0.0000000000000000000, 0.0000000000000000000, -5.959999999999991100 ) ) ;
#198 = EDGE_LOOP ( 'NONE', ( #12, #208, #54, #224 ) ) ;
#199 = STYLED_ITEM ( 'NONE', ( #227 ), #31 ) ;
#200 = ORIENTED_EDGE ( 'NONE', *, *, #71, .F. ) ;
#201 = CARTESIAN_POINT ( 'NONE',  ( -0.3349999999999918600, 4.347496136973066500E-017, -6.000000000000000900 ) ) ;
#202 =( NAMED_UNIT ( * ) SI_UNIT ( $, .STERADIAN. ) SOLID_ANGLE_UNIT ( ) );
#203 = ORIENTED_EDGE ( 'NONE', *, *, #111, .F. ) ;
#204 = CARTESIAN_POINT ( 'NONE',  ( 0.0000000000000000000, 0.0000000000000000000, -5.959999999999989300 ) ) ;
#205 = PRESENTATION_LAYER_ASSIGNMENT (  '', '', ( #199 ) ) ;
#206 = ORIENTED_EDGE ( 'NONE', *, *, #249, .T. ) ;
#207 = DIRECTION ( 'NONE',  ( 0.0000000000000000000, 0.0000000000000000000, -1.000000000000000000 ) ) ;
#208 = ORIENTED_EDGE ( 'NONE', *, *, #111, .T. ) ;
#209 = STYLED_ITEM ( 'NONE', ( #120 ), #99 ) ;
#210 = DIRECTION ( 'NONE',  ( 0.0000000000000000000, 0.0000000000000000000, 1.000000000000000000 ) ) ;
#211 = PRODUCT_DEFINITION_CONTEXT ( 'detailed design', #124, 'design' ) ;
#212 = DIRECTION ( 'NONE',  ( -1.000000000000000000, 0.0000000000000000000, 0.0000000000000000000 ) ) ;
#213 = COLOUR_RGB ( '',0.7921568627450980000, 0.8196078431372548800, 0.9333333333333333500 ) ;
#214 = CARTESIAN_POINT ( 'NONE',  ( -0.3350000000000071300, 0.0000000000000000000, 6.000000000000000900 ) ) ;
#215 = DIRECTION ( 'NONE',  ( 0.0000000000000000000, 0.0000000000000000000, 1.000000000000000000 ) ) ;
#216 = ORIENTED_EDGE ( 'NONE', *, *, #56, .F. ) ;
#217 = APPLICATION_PROTOCOL_DEFINITION ( 'draft international standard', 'automotive_design', 1998, #240 ) ;
#218 = DIRECTION ( 'NONE',  ( -0.0000000000000000000, -0.0000000000000000000, 1.000000000000000000 ) ) ;
#219 = MECHANICAL_DESIGN_GEOMETRIC_PRESENTATION_REPRESENTATION (  '', ( #199 ), #230 ) ;
#220 = DIRECTION ( 'NONE',  ( 0.0000000000000000000, 0.0000000000000000000, -1.000000000000000000 ) ) ;
#221 =( CONVERSION_BASED_UNIT ( 'INCH', #61 ) LENGTH_UNIT ( ) NAMED_UNIT ( #123 ) );
#222 = DIRECTION ( 'NONE',  ( 1.000000000000000000, 0.0000000000000000000, 0.0000000000000000000 ) ) ;
#223 = EDGE_CURVE ( 'NONE', #192, #162, #229, .T. ) ;
#224 = ORIENTED_EDGE ( 'NONE', *, *, #121, .T. ) ;
#225 = CARTESIAN_POINT ( 'NONE',  ( 0.0000000000000000000, 0.0000000000000000000, 6.000000000000000900 ) ) ;
#226 = PRESENTATION_LAYER_ASSIGNMENT (  '', '', ( #209 ) ) ;
#227 = PRESENTATION_STYLE_ASSIGNMENT (( #172 ) ) ;
#228 = CLOSED_SHELL ( 'NONE', ( #159, #232, #67, #175, #81, #103, #2, #142 ) ) ;
#229 = LINE ( 'NONE', #236, #174 ) ;
#230 =( GEOMETRIC_REPRESENTATION_CONTEXT ( 3 ) GLOBAL_UNCERTAINTY_ASSIGNED_CONTEXT ( ( #5 ) ) GLOBAL_UNIT_ASSIGNED_CONTEXT ( ( #221, #132, #115 ) ) REPRESENTATION_CONTEXT ( 'NONE', 'WORKASPACE' ) );
#231 = ORIENTED_EDGE ( 'NONE', *, *, #145, .F. ) ;
#232 = ADVANCED_FACE ( 'NONE', ( #76 ), #38, .T. ) ;
#233 = PRODUCT_CONTEXT ( 'NONE', #240, 'mechanical' ) ;
#234 = VECTOR ( 'NONE', #191, 39.37007874015748100 ) ;
#235 = LINE ( 'NONE', #69, #190 ) ;
#236 = CARTESIAN_POINT ( 'NONE',  ( 0.3350000000000071300, 4.102566777143720900E-017, 6.000000000000000900 ) ) ;
#237 = CARTESIAN_POINT ( 'NONE',  ( 0.0000000000000000000, 0.0000000000000000000, 6.000000000000000900 ) ) ;
#238 = EDGE_CURVE ( 'NONE', #101, #52, #167, .T. ) ;
#239 = CARTESIAN_POINT ( 'NONE',  ( 0.0000000000000000000, 0.0000000000000000000, -6.000000000000000900 ) ) ;
#240 = APPLICATION_CONTEXT ( 'automotive_design' ) ;
#241 = DIRECTION ( 'NONE',  ( 0.0000000000000000000, 0.0000000000000000000, -1.000000000000000000 ) ) ;
#242 = FACE_OUTER_BOUND ( 'NONE', #158, .T. ) ;
#243 = EDGE_LOOP ( 'NONE', ( #97, #39, #206, #203 ) ) ;
#244 = MECHANICAL_DESIGN_GEOMETRIC_PRESENTATION_REPRESENTATION (  '', ( #209 ), #3 ) ;
#245 = DIRECTION ( 'NONE',  ( 1.000000000000000000, 0.0000000000000000000, 0.0000000000000000000 ) ) ;
#246 = AXIS2_PLACEMENT_3D ( 'NONE', #204, #94, #222 ) ;
#247 = EDGE_LOOP ( 'NONE', ( #188, #181, #216, #200 ) ) ;
#248 = CARTESIAN_POINT ( 'NONE',  ( 0.0000000000000000000, 0.0000000000000000000, 6.000000000000000900 ) ) ;
#249 = EDGE_CURVE ( 'NONE', #128, #91, #235, .T. ) ;
ENDSEC;
END-ISO-10303-21;
