ISO-10303-21;
HEADER;
FILE_DESCRIPTION (( 'STEP AP214' ),
    '1' );
FILE_NAME ('RPSS12-18.step',
    '2017-08-09T17:47:22',
    ( '' ),
    ( '' ),
    'SwSTEP 2.0',
    'SolidWorks 2017',
    '' );
FILE_SCHEMA (( 'AUTOMOTIVE_DESIGN' ));
ENDSEC;

DATA;
#1 =( LENGTH_UNIT ( ) NAMED_UNIT ( * ) SI_UNIT ( $, .METRE. ) );
#2 =( NAMED_UNIT ( * ) PLANE_ANGLE_UNIT ( ) SI_UNIT ( $, .RADIAN. ) );
#3 = FACE_OUTER_BOUND ( 'NONE', #21, .T. ) ;
#4 = PRESENTATION_LAYER_ASSIGNMENT (  '', '', ( #18 ) ) ;
#5 = FACE_OUTER_BOUND ( 'NONE', #25, .T. ) ;
#6 = VERTEX_POINT ( 'NONE', #79 ) ;
#7 = EDGE_CURVE ( 'NONE', #95, #36, #49, .T. ) ;
#8 = EDGE_LOOP ( 'NONE', ( #230, #110, #249, #175 ) ) ;
#9 = LINE ( 'NONE', #29, #105 ) ;
#10 = FACE_OUTER_BOUND ( 'NONE', #26, .T. ) ;
#11 = PRESENTATION_LAYER_ASSIGNMENT (  '', '', ( #45 ) ) ;
#12 = CARTESIAN_POINT ( 'NONE',  ( 0.0000000000000000000, 0.0000000000000000000, 9.000000000000000000 ) ) ;
#13 = VERTEX_POINT ( 'NONE', #64 ) ;
#14 =( NAMED_UNIT ( * ) SI_UNIT ( $, .STERADIAN. ) SOLID_ANGLE_UNIT ( ) );
#15 = CARTESIAN_POINT ( 'NONE',  ( -0.3750000000000000600, 0.0000000000000000000, -8.959999999999997300 ) ) ;
#16 = ADVANCED_FACE ( 'NONE', ( #3 ), #44, .T. ) ;
#17 = DIRECTION ( 'NONE',  ( -0.7071067811865553400, 0.0000000000000000000, -0.7071067811865396900 ) ) ;
#18 = STYLED_ITEM ( 'NONE', ( #115 ), #221 ) ;
#19 = VECTOR ( 'NONE', #17, 39.37007874015748100 ) ;
#20 =( NAMED_UNIT ( * ) PLANE_ANGLE_UNIT ( ) SI_UNIT ( $, .RADIAN. ) );
#21 = EDGE_LOOP ( 'NONE', ( #200, #42, #219, #149 ) ) ;
#22 = UNCERTAINTY_MEASURE_WITH_UNIT (LENGTH_MEASURE( 1.000000000000000100E-005 ), #127, 'distance_accuracy_value', 'NONE');
#23 = CIRCLE ( 'NONE', #173, 0.3750000000000000600 ) ;
#24 = AXIS2_PLACEMENT_3D ( 'NONE', #12, #27, #217 ) ;
#25 = EDGE_LOOP ( 'NONE', ( #171, #63 ) ) ;
#26 = EDGE_LOOP ( 'NONE', ( #214, #56, #131, #116 ) ) ;
#27 = DIRECTION ( 'NONE',  ( -0.0000000000000000000, -0.0000000000000000000, -1.000000000000000000 ) ) ;
#28 = CARTESIAN_POINT ( 'NONE',  ( 0.3349999999999995800, 0.0000000000000000000, -9.000000000000000000 ) ) ;
#29 = CARTESIAN_POINT ( 'NONE',  ( -0.3750000000000000600, 4.592425496802575500E-017, -8.959999999999997300 ) ) ;
#30 = PRODUCT ( 'RPSS12-18', 'RPSS12-18', '', ( #168 ) ) ;
#31 = ADVANCED_FACE ( 'NONE', ( #10 ), #191, .T. ) ;
#32 = CARTESIAN_POINT ( 'NONE',  ( 0.0000000000000000000, 0.0000000000000000000, 9.000000000000000000 ) ) ;
#33 = DIRECTION ( 'NONE',  ( 0.0000000000000000000, 0.0000000000000000000, 1.000000000000000000 ) ) ;
#34 = DIRECTION ( 'NONE',  ( 0.0000000000000000000, 0.0000000000000000000, 1.000000000000000000 ) ) ;
#35 = AXIS2_PLACEMENT_3D ( 'NONE', #176, #198, #48 ) ;
#36 = VERTEX_POINT ( 'NONE', #177 ) ;
#37 = MANIFOLD_SOLID_BREP ( 'Chamfer1', #148 ) ;
#38 = DIRECTION ( 'NONE',  ( 1.000000000000000000, 0.0000000000000000000, 0.0000000000000000000 ) ) ;
#39 = PRESENTATION_STYLE_ASSIGNMENT (( #220 ) ) ;
#40 =( GEOMETRIC_REPRESENTATION_CONTEXT ( 3 ) GLOBAL_UNCERTAINTY_ASSIGNED_CONTEXT ( ( #22 ) ) GLOBAL_UNIT_ASSIGNED_CONTEXT ( ( #127, #20, #143 ) ) REPRESENTATION_CONTEXT ( 'NONE', 'WORKASPACE' ) );
#41 = CIRCLE ( 'NONE', #83, 0.3750000000000000600 ) ;
#42 = ORIENTED_EDGE ( 'NONE', *, *, #213, .T. ) ;
#43 = CARTESIAN_POINT ( 'NONE',  ( 0.0000000000000000000, 0.0000000000000000000, -9.000000000000000000 ) ) ;
#44 = CYLINDRICAL_SURFACE ( 'NONE', #35, 0.3750000000000000600 ) ;
#45 = STYLED_ITEM ( 'NONE', ( #39 ), #37 ) ;
#46 = FACE_OUTER_BOUND ( 'NONE', #8, .T. ) ;
#47 = ORIENTED_EDGE ( 'NONE', *, *, #142, .F. ) ;
#48 = DIRECTION ( 'NONE',  ( -1.000000000000000000, 0.0000000000000000000, 0.0000000000000000000 ) ) ;
#49 = CIRCLE ( 'NONE', #71, 0.3349999999999995800 ) ;
#50 = ADVANCED_FACE ( 'NONE', ( #195 ), #153, .T. ) ;
#51 = DIRECTION ( 'NONE',  ( -0.0000000000000000000, -0.0000000000000000000, -1.000000000000000000 ) ) ;
#52 = CARTESIAN_POINT ( 'NONE',  ( 0.0000000000000000000, 0.0000000000000000000, 8.960000000000004400 ) ) ;
#53 = AXIS2_PLACEMENT_3D ( 'NONE', #88, #231, #109 ) ;
#54 = VECTOR ( 'NONE', #183, 39.37007874015748900 ) ;
#55 = DIRECTION ( 'NONE',  ( -0.0000000000000000000, -0.0000000000000000000, -1.000000000000000000 ) ) ;
#56 = ORIENTED_EDGE ( 'NONE', *, *, #187, .T. ) ;
#57 = DIRECTION ( 'NONE',  ( -0.0000000000000000000, -0.0000000000000000000, 1.000000000000000000 ) ) ;
#58 = ORIENTED_EDGE ( 'NONE', *, *, #76, .T. ) ;
#59 = APPLICATION_CONTEXT ( 'automotive_design' ) ;
#60 = CIRCLE ( 'NONE', #133, 0.3750000000000000600 ) ;
#61 = UNCERTAINTY_MEASURE_WITH_UNIT (LENGTH_MEASURE( 1.000000000000000100E-005 ), #241, 'distance_accuracy_value', 'NONE');
#62 = LENGTH_MEASURE_WITH_UNIT ( LENGTH_MEASURE( 0.02539999999999999900 ), #232 );
#63 = ORIENTED_EDGE ( 'NONE', *, *, #93, .T. ) ;
#64 = CARTESIAN_POINT ( 'NONE',  ( 0.3350000000000039600, 4.347496136973128800E-017, 9.000000000000000000 ) ) ;
#65 = AXIS2_PLACEMENT_3D ( 'NONE', #164, #57, #188 ) ;
#66 = LINE ( 'NONE', #84, #54 ) ;
#67 = ORIENTED_EDGE ( 'NONE', *, *, #239, .F. ) ;
#68 = FILL_AREA_STYLE_COLOUR ( '', #132 ) ;
#69 = DIRECTION ( 'NONE',  ( 1.000000000000000000, 0.0000000000000000000, -0.0000000000000000000 ) ) ;
#70 = DIRECTION ( 'NONE',  ( 1.000000000000000000, 0.0000000000000000000, 0.0000000000000000000 ) ) ;
#71 = AXIS2_PLACEMENT_3D ( 'NONE', #43, #99, #240 ) ;
#72 = ORIENTED_EDGE ( 'NONE', *, *, #129, .F. ) ;
#73 = FILL_AREA_STYLE ('',( #108 ) ) ;
#74 = AXIS2_PLACEMENT_3D ( 'NONE', #184, #163, #185 ) ;
#75 = VERTEX_POINT ( 'NONE', #81 ) ;
#76 = EDGE_CURVE ( 'NONE', #13, #75, #90, .T. ) ;
#77 = CONICAL_SURFACE ( 'NONE', #74, 0.3750000000000000600, 0.7853981633974185300 ) ;
#78 = ORIENTED_EDGE ( 'NONE', *, *, #76, .F. ) ;
#79 = CARTESIAN_POINT ( 'NONE',  ( 0.3750000000000000600, 4.592425496802575500E-017, -8.959999999999997300 ) ) ;
#80 = SURFACE_SIDE_STYLE ('',( #82 ) ) ;
#81 = CARTESIAN_POINT ( 'NONE',  ( 0.3750000000000000600, 4.592425496802575500E-017, 8.960000000000004400 ) ) ;
#82 = SURFACE_STYLE_FILL_AREA ( #199 ) ;
#83 = AXIS2_PLACEMENT_3D ( 'NONE', #208, #87, #228 ) ;
#84 = CARTESIAN_POINT ( 'NONE',  ( 0.3750000000000000600, 0.0000000000000000000, -8.959999999999997300 ) ) ;
#85 = DIRECTION ( 'NONE',  ( -0.0000000000000000000, -0.0000000000000000000, -1.000000000000000000 ) ) ;
#86 = ORIENTED_EDGE ( 'NONE', *, *, #129, .T. ) ;
#87 = DIRECTION ( 'NONE',  ( 0.0000000000000000000, 0.0000000000000000000, -1.000000000000000000 ) ) ;
#88 = CARTESIAN_POINT ( 'NONE',  ( 0.0000000000000000000, 0.0000000000000000000, 9.000000000000000000 ) ) ;
#89 = SURFACE_STYLE_USAGE ( .BOTH. , #210 ) ;
#90 = LINE ( 'NONE', #102, #215 ) ;
#91 = VECTOR ( 'NONE', #85, 39.37007874015748100 ) ;
#92 = EDGE_LOOP ( 'NONE', ( #47, #126, #154, #98 ) ) ;
#93 = EDGE_CURVE ( 'NONE', #36, #95, #135, .T. ) ;
#94 = SHAPE_DEFINITION_REPRESENTATION ( #112, #221 ) ;
#95 = VERTEX_POINT ( 'NONE', #28 ) ;
#96 = AXIS2_PLACEMENT_3D ( 'NONE', #124, #34, #162 ) ;
#97 = VECTOR ( 'NONE', #55, 39.37007874015748100 ) ;
#98 = ORIENTED_EDGE ( 'NONE', *, *, #229, .F. ) ;
#99 = DIRECTION ( 'NONE',  ( -0.0000000000000000000, -0.0000000000000000000, -1.000000000000000000 ) ) ;
#100 =( LENGTH_UNIT ( ) NAMED_UNIT ( * ) SI_UNIT ( $, .METRE. ) );
#101 = VERTEX_POINT ( 'NONE', #15 ) ;
#102 = CARTESIAN_POINT ( 'NONE',  ( 0.3350000000000039600, 4.102566777143681500E-017, 9.000000000000000000 ) ) ;
#103 = ADVANCED_FACE ( 'NONE', ( #114 ), #151, .T. ) ;
#104 = CARTESIAN_POINT ( 'NONE',  ( 0.3750000000000000600, 4.592425496802575500E-017, 9.000000000000000000 ) ) ;
#105 = VECTOR ( 'NONE', #123, 39.37007874015748900 ) ;
#106 = DIRECTION ( 'NONE',  ( -0.0000000000000000000, -0.0000000000000000000, 1.000000000000000000 ) ) ;
#107 = EDGE_CURVE ( 'NONE', #186, #118, #159, .T. ) ;
#108 = FILL_AREA_STYLE_COLOUR ( '', #218 ) ;
#109 = DIRECTION ( 'NONE',  ( 1.000000000000000000, 0.0000000000000000000, 0.0000000000000000000 ) ) ;
#110 = ORIENTED_EDGE ( 'NONE', *, *, #142, .T. ) ;
#111 =( CONVERSION_BASED_UNIT ( 'INCH', #62 ) LENGTH_UNIT ( ) NAMED_UNIT ( #122 ) );
#112 = PRODUCT_DEFINITION_SHAPE ( 'NONE', 'NONE',  #169 ) ;
#113 = AXIS2_PLACEMENT_3D ( 'NONE', #248, #125, #207 ) ;
#114 = FACE_OUTER_BOUND ( 'NONE', #141, .T. ) ;
#115 = PRESENTATION_STYLE_ASSIGNMENT (( #89 ) ) ;
#116 = ORIENTED_EDGE ( 'NONE', *, *, #197, .F. ) ;
#117 = EDGE_CURVE ( 'NONE', #118, #75, #23, .T. ) ;
#118 = VERTEX_POINT ( 'NONE', #223 ) ;
#119 =( NAMED_UNIT ( * ) PLANE_ANGLE_UNIT ( ) SI_UNIT ( $, .RADIAN. ) );
#120 = ADVANCED_FACE ( 'NONE', ( #212 ), #147, .T. ) ;
#121 = CARTESIAN_POINT ( 'NONE',  ( -0.3350000000000039600, 0.0000000000000000000, 9.000000000000000000 ) ) ;
#122 = DIMENSIONAL_EXPONENTS ( 1.000000000000000000, 0.0000000000000000000, 0.0000000000000000000, 0.0000000000000000000, 0.0000000000000000000, 0.0000000000000000000, 0.0000000000000000000 ) ;
#123 = DIRECTION ( 'NONE',  ( -0.7071067811865263700, 8.659560562354675200E-017, 0.7071067811865685600 ) ) ;
#124 = CARTESIAN_POINT ( 'NONE',  ( 0.0000000000000000000, 0.0000000000000000000, -9.000000000000000000 ) ) ;
#125 = DIRECTION ( 'NONE',  ( -0.0000000000000000000, -0.0000000000000000000, 1.000000000000000000 ) ) ;
#126 = ORIENTED_EDGE ( 'NONE', *, *, #7, .F. ) ;
#127 =( CONVERSION_BASED_UNIT ( 'INCH', #174 ) LENGTH_UNIT ( ) NAMED_UNIT ( #157 ) );
#128 =( NAMED_UNIT ( * ) SI_UNIT ( $, .STERADIAN. ) SOLID_ANGLE_UNIT ( ) );
#129 = EDGE_CURVE ( 'NONE', #13, #186, #206, .T. ) ;
#130 = CIRCLE ( 'NONE', #65, 0.3750000000000000600 ) ;
#131 = ORIENTED_EDGE ( 'NONE', *, *, #152, .T. ) ;
#132 = COLOUR_RGB ( '',0.7921568627450980000, 0.8196078431372548800, 0.9333333333333333500 ) ;
#133 = AXIS2_PLACEMENT_3D ( 'NONE', #226, #106, #245 ) ;
#134 = ORIENTED_EDGE ( 'NONE', *, *, #107, .F. ) ;
#135 = CIRCLE ( 'NONE', #216, 0.3349999999999995800 ) ;
#136 = CARTESIAN_POINT ( 'NONE',  ( 0.0000000000000000000, 0.0000000000000000000, 9.000000000000000000 ) ) ;
#137 = PRODUCT_RELATED_PRODUCT_CATEGORY ( 'part', '', ( #30 ) ) ;
#138 = DIRECTION ( 'NONE',  ( 0.0000000000000000000, 0.0000000000000000000, -1.000000000000000000 ) ) ;
#139 = CARTESIAN_POINT ( 'NONE',  ( 0.0000000000000000000, 0.0000000000000000000, 9.000000000000000000 ) ) ;
#140 = CARTESIAN_POINT ( 'NONE',  ( -0.3350000000000039600, 0.0000000000000000000, 9.000000000000000000 ) ) ;
#141 = EDGE_LOOP ( 'NONE', ( #78, #67, #145, #238 ) ) ;
#142 = EDGE_CURVE ( 'NONE', #36, #101, #9, .T. ) ;
#143 =( NAMED_UNIT ( * ) SI_UNIT ( $, .STERADIAN. ) SOLID_ANGLE_UNIT ( ) );
#144 = DIRECTION ( 'NONE',  ( 0.0000000000000000000, 0.0000000000000000000, 1.000000000000000000 ) ) ;
#145 = ORIENTED_EDGE ( 'NONE', *, *, #107, .T. ) ;
#146 = AXIS2_PLACEMENT_3D ( 'NONE', #139, #33, #160 ) ;
#147 = CONICAL_SURFACE ( 'NONE', #161, 0.3350000000000039600, 0.7853981633974593800 ) ;
#148 = CLOSED_SHELL ( 'NONE', ( #120, #202, #31, #16, #50, #181, #222, #103 ) ) ;
#149 = ORIENTED_EDGE ( 'NONE', *, *, #229, .T. ) ;
#150 = PRODUCT_DEFINITION_FORMATION_WITH_SPECIFIED_SOURCE ( 'ANY', '', #30, .NOT_KNOWN. ) ;
#151 = CONICAL_SURFACE ( 'NONE', #192, 0.3350000000000039600, 0.7853981633974593800 ) ;
#152 = EDGE_CURVE ( 'NONE', #6, #101, #60, .T. ) ;
#153 = PLANE ( 'NONE',  #205 ) ;
#154 = ORIENTED_EDGE ( 'NONE', *, *, #170, .T. ) ;
#155 = CARTESIAN_POINT ( 'NONE',  ( 0.0000000000000000000, 0.0000000000000000000, 9.000000000000000000 ) ) ;
#156 = CARTESIAN_POINT ( 'NONE',  ( 0.0000000000000000000, 0.0000000000000000000, -9.000000000000000000 ) ) ;
#157 = DIMENSIONAL_EXPONENTS ( 1.000000000000000000, 0.0000000000000000000, 0.0000000000000000000, 0.0000000000000000000, 0.0000000000000000000, 0.0000000000000000000, 0.0000000000000000000 ) ;
#158 = DIRECTION ( 'NONE',  ( -1.000000000000000000, 0.0000000000000000000, 0.0000000000000000000 ) ) ;
#159 = LINE ( 'NONE', #121, #19 ) ;
#160 = DIRECTION ( 'NONE',  ( 1.000000000000000000, 0.0000000000000000000, 0.0000000000000000000 ) ) ;
#161 = AXIS2_PLACEMENT_3D ( 'NONE', #32, #138, #158 ) ;
#162 = DIRECTION ( 'NONE',  ( 1.000000000000000000, 0.0000000000000000000, -0.0000000000000000000 ) ) ;
#163 = DIRECTION ( 'NONE',  ( -0.0000000000000000000, -0.0000000000000000000, 1.000000000000000000 ) ) ;
#164 = CARTESIAN_POINT ( 'NONE',  ( 0.0000000000000000000, 0.0000000000000000000, -8.959999999999997300 ) ) ;
#165 = SURFACE_STYLE_FILL_AREA ( #73 ) ;
#166 = EDGE_LOOP ( 'NONE', ( #72, #58, #211, #134 ) ) ;
#167 = APPLICATION_PROTOCOL_DEFINITION ( 'draft international standard', 'automotive_design', 1998, #189 ) ;
#168 = PRODUCT_CONTEXT ( 'NONE', #189, 'mechanical' ) ;
#169 = PRODUCT_DEFINITION ( 'UNKNOWN', '', #150, #225 ) ;
#170 = EDGE_CURVE ( 'NONE', #95, #6, #66, .T. ) ;
#171 = ORIENTED_EDGE ( 'NONE', *, *, #7, .T. ) ;
#172 = UNCERTAINTY_MEASURE_WITH_UNIT (LENGTH_MEASURE( 1.000000000000000100E-005 ), #111, 'distance_accuracy_value', 'NONE');
#173 = AXIS2_PLACEMENT_3D ( 'NONE', #52, #182, #70 ) ;
#174 = LENGTH_MEASURE_WITH_UNIT ( LENGTH_MEASURE( 0.02539999999999999900 ), #1 );
#175 = ORIENTED_EDGE ( 'NONE', *, *, #170, .F. ) ;
#176 = CARTESIAN_POINT ( 'NONE',  ( 0.0000000000000000000, 0.0000000000000000000, 9.000000000000000000 ) ) ;
#177 = CARTESIAN_POINT ( 'NONE',  ( -0.3349999999999995800, 4.347496136973101700E-017, -9.000000000000000000 ) ) ;
#178 = DIRECTION ( 'NONE',  ( 0.0000000000000000000, 0.0000000000000000000, 1.000000000000000000 ) ) ;
#179 = DIRECTION ( 'NONE',  ( 1.000000000000000000, 0.0000000000000000000, 0.0000000000000000000 ) ) ;
#180 = AXIS2_PLACEMENT_3D ( 'NONE', #209, #144, #38 ) ;
#181 = ADVANCED_FACE ( 'NONE', ( #5 ), #204, .F. ) ;
#182 = DIRECTION ( 'NONE',  ( 0.0000000000000000000, 0.0000000000000000000, -1.000000000000000000 ) ) ;
#183 = DIRECTION ( 'NONE',  ( 0.7071067811865263700, 0.0000000000000000000, 0.7071067811865685600 ) ) ;
#184 = CARTESIAN_POINT ( 'NONE',  ( 0.0000000000000000000, 0.0000000000000000000, -8.959999999999997300 ) ) ;
#185 = DIRECTION ( 'NONE',  ( 1.000000000000000000, 0.0000000000000000000, 0.0000000000000000000 ) ) ;
#186 = VERTEX_POINT ( 'NONE', #140 ) ;
#187 = EDGE_CURVE ( 'NONE', #75, #6, #196, .T. ) ;
#188 = DIRECTION ( 'NONE',  ( 1.000000000000000000, 0.0000000000000000000, 0.0000000000000000000 ) ) ;
#189 = APPLICATION_CONTEXT ( 'automotive_design' ) ;
#190 = APPLICATION_PROTOCOL_DEFINITION ( 'draft international standard', 'automotive_design', 1998, #59 ) ;
#191 = CYLINDRICAL_SURFACE ( 'NONE', #24, 0.3750000000000000600 ) ;
#192 = AXIS2_PLACEMENT_3D ( 'NONE', #136, #201, #203 ) ;
#193 = CIRCLE ( 'NONE', #53, 0.3350000000000039600 ) ;
#194 = ORIENTED_EDGE ( 'NONE', *, *, #239, .T. ) ;
#195 = FACE_OUTER_BOUND ( 'NONE', #235, .T. ) ;
#196 = LINE ( 'NONE', #104, #91 ) ;
#197 = EDGE_CURVE ( 'NONE', #118, #101, #243, .T. ) ;
#198 = DIRECTION ( 'NONE',  ( -0.0000000000000000000, -0.0000000000000000000, -1.000000000000000000 ) ) ;
#199 = FILL_AREA_STYLE ('',( #68 ) ) ;
#200 = ORIENTED_EDGE ( 'NONE', *, *, #187, .F. ) ;
#201 = DIRECTION ( 'NONE',  ( 0.0000000000000000000, 0.0000000000000000000, -1.000000000000000000 ) ) ;
#202 = ADVANCED_FACE ( 'NONE', ( #46 ), #237, .T. ) ;
#203 = DIRECTION ( 'NONE',  ( -1.000000000000000000, 0.0000000000000000000, 0.0000000000000000000 ) ) ;
#204 = PLANE ( 'NONE',  #96 ) ;
#205 = AXIS2_PLACEMENT_3D ( 'NONE', #155, #178, #69 ) ;
#206 = CIRCLE ( 'NONE', #146, 0.3350000000000039600 ) ;
#207 = DIRECTION ( 'NONE',  ( 1.000000000000000000, 0.0000000000000000000, 0.0000000000000000000 ) ) ;
#208 = CARTESIAN_POINT ( 'NONE',  ( 0.0000000000000000000, 0.0000000000000000000, 8.960000000000004400 ) ) ;
#209 = CARTESIAN_POINT ( 'NONE',  ( 0.0000000000000000000, 0.0000000000000000000, 0.0000000000000000000 ) ) ;
#210 = SURFACE_SIDE_STYLE ('',( #165 ) ) ;
#211 = ORIENTED_EDGE ( 'NONE', *, *, #117, .F. ) ;
#212 = FACE_OUTER_BOUND ( 'NONE', #166, .T. ) ;
#213 = EDGE_CURVE ( 'NONE', #75, #118, #41, .T. ) ;
#214 = ORIENTED_EDGE ( 'NONE', *, *, #117, .T. ) ;
#215 = VECTOR ( 'NONE', #242, 39.37007874015748100 ) ;
#216 = AXIS2_PLACEMENT_3D ( 'NONE', #156, #51, #179 ) ;
#217 = DIRECTION ( 'NONE',  ( -1.000000000000000000, 0.0000000000000000000, 0.0000000000000000000 ) ) ;
#218 = COLOUR_RGB ( '',0.7921568627450980000, 0.8196078431372548800, 0.9333333333333333500 ) ;
#219 = ORIENTED_EDGE ( 'NONE', *, *, #197, .T. ) ;
#220 = SURFACE_STYLE_USAGE ( .BOTH. , #80 ) ;
#221 = ADVANCED_BREP_SHAPE_REPRESENTATION ( 'RPSS12-18', ( #37, #180 ), #40 ) ;
#222 = ADVANCED_FACE ( 'NONE', ( #247 ), #77, .T. ) ;
#223 = CARTESIAN_POINT ( 'NONE',  ( -0.3750000000000000600, 0.0000000000000000000, 8.960000000000004400 ) ) ;
#224 =( GEOMETRIC_REPRESENTATION_CONTEXT ( 3 ) GLOBAL_UNCERTAINTY_ASSIGNED_CONTEXT ( ( #172 ) ) GLOBAL_UNIT_ASSIGNED_CONTEXT ( ( #111, #2, #128 ) ) REPRESENTATION_CONTEXT ( 'NONE', 'WORKASPACE' ) );
#225 = PRODUCT_DEFINITION_CONTEXT ( 'detailed design', #59, 'design' ) ;
#226 = CARTESIAN_POINT ( 'NONE',  ( 0.0000000000000000000, 0.0000000000000000000, -8.959999999999997300 ) ) ;
#227 = CARTESIAN_POINT ( 'NONE',  ( -0.3750000000000000600, 0.0000000000000000000, 9.000000000000000000 ) ) ;
#228 = DIRECTION ( 'NONE',  ( 1.000000000000000000, 0.0000000000000000000, 0.0000000000000000000 ) ) ;
#229 = EDGE_CURVE ( 'NONE', #101, #6, #130, .T. ) ;
#230 = ORIENTED_EDGE ( 'NONE', *, *, #93, .F. ) ;
#231 = DIRECTION ( 'NONE',  ( 0.0000000000000000000, 0.0000000000000000000, 1.000000000000000000 ) ) ;
#232 =( LENGTH_UNIT ( ) NAMED_UNIT ( * ) SI_UNIT ( $, .METRE. ) );
#233 = LENGTH_MEASURE_WITH_UNIT ( LENGTH_MEASURE( 0.02539999999999999900 ), #100 );
#234 =( GEOMETRIC_REPRESENTATION_CONTEXT ( 3 ) GLOBAL_UNCERTAINTY_ASSIGNED_CONTEXT ( ( #61 ) ) GLOBAL_UNIT_ASSIGNED_CONTEXT ( ( #241, #119, #14 ) ) REPRESENTATION_CONTEXT ( 'NONE', 'WORKASPACE' ) );
#235 = EDGE_LOOP ( 'NONE', ( #194, #86 ) ) ;
#236 = MECHANICAL_DESIGN_GEOMETRIC_PRESENTATION_REPRESENTATION (  '', ( #18 ), #224 ) ;
#237 = CONICAL_SURFACE ( 'NONE', #113, 0.3750000000000000600, 0.7853981633974185300 ) ;
#238 = ORIENTED_EDGE ( 'NONE', *, *, #213, .F. ) ;
#239 = EDGE_CURVE ( 'NONE', #186, #13, #193, .T. ) ;
#240 = DIRECTION ( 'NONE',  ( 1.000000000000000000, 0.0000000000000000000, 0.0000000000000000000 ) ) ;
#241 =( CONVERSION_BASED_UNIT ( 'INCH', #233 ) LENGTH_UNIT ( ) NAMED_UNIT ( #244 ) );
#242 = DIRECTION ( 'NONE',  ( 0.7071067811865553400, 8.659560562355029000E-017, -0.7071067811865396900 ) ) ;
#243 = LINE ( 'NONE', #227, #97 ) ;
#244 = DIMENSIONAL_EXPONENTS ( 1.000000000000000000, 0.0000000000000000000, 0.0000000000000000000, 0.0000000000000000000, 0.0000000000000000000, 0.0000000000000000000, 0.0000000000000000000 ) ;
#245 = DIRECTION ( 'NONE',  ( 1.000000000000000000, 0.0000000000000000000, 0.0000000000000000000 ) ) ;
#246 = MECHANICAL_DESIGN_GEOMETRIC_PRESENTATION_REPRESENTATION (  '', ( #45 ), #234 ) ;
#247 = FACE_OUTER_BOUND ( 'NONE', #92, .T. ) ;
#248 = CARTESIAN_POINT ( 'NONE',  ( 0.0000000000000000000, 0.0000000000000000000, -8.959999999999997300 ) ) ;
#249 = ORIENTED_EDGE ( 'NONE', *, *, #152, .F. ) ;
ENDSEC;
END-ISO-10303-21;
