ISO-10303-21;
HEADER;
FILE_DESCRIPTION (( 'STEP AP214' ),
    '1' );
FILE_NAME ('RPSS12-24.step',
    '2017-08-09T17:47:39',
    ( '' ),
    ( '' ),
    'SwSTEP 2.0',
    'SolidWorks 2017',
    '' );
FILE_SCHEMA (( 'AUTOMOTIVE_DESIGN' ));
ENDSEC;

DATA;
#1 = APPLICATION_PROTOCOL_DEFINITION ( 'draft international standard', 'automotive_design', 1998, #24 ) ;
#2 = ADVANCED_BREP_SHAPE_REPRESENTATION ( 'RPSS12-24', ( #62, #195 ), #224 ) ;
#3 = PRODUCT_CONTEXT ( 'NONE', #24, 'mechanical' ) ;
#4 = AXIS2_PLACEMENT_3D ( 'NONE', #248, #138, #20 ) ;
#5 = ORIENTED_EDGE ( 'NONE', *, *, #44, .T. ) ;
#6 = EDGE_CURVE ( 'NONE', #67, #25, #106, .T. ) ;
#7 = FACE_OUTER_BOUND ( 'NONE', #226, .T. ) ;
#8 = ORIENTED_EDGE ( 'NONE', *, *, #57, .T. ) ;
#9 = ORIENTED_EDGE ( 'NONE', *, *, #229, .T. ) ;
#10 = PRESENTATION_LAYER_ASSIGNMENT (  '', '', ( #28 ) ) ;
#11 = DIRECTION ( 'NONE',  ( -0.0000000000000000000, -0.0000000000000000000, 1.000000000000000000 ) ) ;
#12 = CIRCLE ( 'NONE', #15, 0.3350000000000104000 ) ;
#13 = DIRECTION ( 'NONE',  ( 1.000000000000000000, 0.0000000000000000000, 0.0000000000000000000 ) ) ;
#14 = AXIS2_PLACEMENT_3D ( 'NONE', #221, #112, #242 ) ;
#15 = AXIS2_PLACEMENT_3D ( 'NONE', #175, #55, #188 ) ;
#16 = DIRECTION ( 'NONE',  ( -0.0000000000000000000, -0.0000000000000000000, 1.000000000000000000 ) ) ;
#17 = ORIENTED_EDGE ( 'NONE', *, *, #85, .F. ) ;
#18 = ORIENTED_EDGE ( 'NONE', *, *, #85, .T. ) ;
#19 = CARTESIAN_POINT ( 'NONE',  ( -0.3750000000000000600, 4.592425496802573600E-017, -11.95999999999999200 ) ) ;
#20 = DIRECTION ( 'NONE',  ( 1.000000000000000000, 0.0000000000000000000, 0.0000000000000000000 ) ) ;
#21 = FILL_AREA_STYLE_COLOUR ( '', #193 ) ;
#22 = EDGE_CURVE ( 'NONE', #125, #67, #200, .T. ) ;
#23 = FACE_OUTER_BOUND ( 'NONE', #186, .T. ) ;
#24 = APPLICATION_CONTEXT ( 'automotive_design' ) ;
#25 = VERTEX_POINT ( 'NONE', #237 ) ;
#26 = APPLICATION_PROTOCOL_DEFINITION ( 'draft international standard', 'automotive_design', 1998, #140 ) ;
#27 = ORIENTED_EDGE ( 'NONE', *, *, #22, .T. ) ;
#28 = STYLED_ITEM ( 'NONE', ( #199 ), #2 ) ;
#29 = FACE_OUTER_BOUND ( 'NONE', #116, .T. ) ;
#30 = AXIS2_PLACEMENT_3D ( 'NONE', #228, #118, #245 ) ;
#31 = ORIENTED_EDGE ( 'NONE', *, *, #57, .F. ) ;
#32 = EDGE_CURVE ( 'NONE', #25, #173, #159, .T. ) ;
#33 = CARTESIAN_POINT ( 'NONE',  ( 0.0000000000000000000, 0.0000000000000000000, 12.00000000000000200 ) ) ;
#34 = SURFACE_SIDE_STYLE ('',( #98 ) ) ;
#35 = LINE ( 'NONE', #139, #180 ) ;
#36 = CLOSED_SHELL ( 'NONE', ( #84, #161, #230, #217, #64, #78, #234, #56 ) ) ;
#37 = DIRECTION ( 'NONE',  ( -0.7071067811865656700, 8.659560562355153500E-017, 0.7071067811865293700 ) ) ;
#38 = CARTESIAN_POINT ( 'NONE',  ( 0.0000000000000000000, 0.0000000000000000000, 12.00000000000000200 ) ) ;
#39 = LENGTH_MEASURE_WITH_UNIT ( LENGTH_MEASURE( 0.02539999999999999900 ), #48 );
#40 = SURFACE_SIDE_STYLE ('',( #87 ) ) ;
#41 = ORIENTED_EDGE ( 'NONE', *, *, #201, .F. ) ;
#42 = AXIS2_PLACEMENT_3D ( 'NONE', #150, #16, #50 ) ;
#43 = CIRCLE ( 'NONE', #120, 0.3350000000000104000 ) ;
#44 = EDGE_CURVE ( 'NONE', #126, #125, #151, .T. ) ;
#45 = DIMENSIONAL_EXPONENTS ( 1.000000000000000000, 0.0000000000000000000, 0.0000000000000000000, 0.0000000000000000000, 0.0000000000000000000, 0.0000000000000000000, 0.0000000000000000000 ) ;
#46 = UNCERTAINTY_MEASURE_WITH_UNIT (LENGTH_MEASURE( 1.000000000000000100E-005 ), #211, 'distance_accuracy_value', 'NONE');
#47 = VECTOR ( 'NONE', #166, 39.37007874015748100 ) ;
#48 =( LENGTH_UNIT ( ) NAMED_UNIT ( * ) SI_UNIT ( $, .METRE. ) );
#49 = DIRECTION ( 'NONE',  ( -1.000000000000000000, 0.0000000000000000000, 0.0000000000000000000 ) ) ;
#50 = DIRECTION ( 'NONE',  ( 1.000000000000000000, 0.0000000000000000000, 0.0000000000000000000 ) ) ;
#51 = AXIS2_PLACEMENT_3D ( 'NONE', #74, #206, #95 ) ;
#52 = CARTESIAN_POINT ( 'NONE',  ( -0.3349999999999885800, 4.347496136973033200E-017, -12.00000000000000200 ) ) ;
#53 = VECTOR ( 'NONE', #133, 39.37007874015748100 ) ;
#54 = ORIENTED_EDGE ( 'NONE', *, *, #6, .T. ) ;
#55 = DIRECTION ( 'NONE',  ( 0.0000000000000000000, 0.0000000000000000000, 1.000000000000000000 ) ) ;
#56 = ADVANCED_FACE ( 'NONE', ( #102 ), #238, .T. ) ;
#57 = EDGE_CURVE ( 'NONE', #141, #126, #43, .T. ) ;
#58 =( LENGTH_UNIT ( ) NAMED_UNIT ( * ) SI_UNIT ( $, .METRE. ) );
#59 = CONICAL_SURFACE ( 'NONE', #42, 0.3750000000000000600, 0.7853981633974739300 ) ;
#60 = ORIENTED_EDGE ( 'NONE', *, *, #179, .F. ) ;
#61 = EDGE_LOOP ( 'NONE', ( #41, #17, #197, #164 ) ) ;
#62 = MANIFOLD_SOLID_BREP ( 'Chamfer1', #36 ) ;
#63 =( GEOMETRIC_REPRESENTATION_CONTEXT ( 3 ) GLOBAL_UNCERTAINTY_ASSIGNED_CONTEXT ( ( #92 ) ) GLOBAL_UNIT_ASSIGNED_CONTEXT ( ( #184, #72, #204 ) ) REPRESENTATION_CONTEXT ( 'NONE', 'WORKASPACE' ) );
#64 = ADVANCED_FACE ( 'NONE', ( #79 ), #109, .T. ) ;
#65 = CONICAL_SURFACE ( 'NONE', #83, 0.3350000000000104000, 0.7853981633974466100 ) ;
#66 = AXIS2_PLACEMENT_3D ( 'NONE', #170, #94, #223 ) ;
#67 = VERTEX_POINT ( 'NONE', #222 ) ;
#68 = ORIENTED_EDGE ( 'NONE', *, *, #101, .F. ) ;
#69 = CARTESIAN_POINT ( 'NONE',  ( 0.0000000000000000000, 0.0000000000000000000, 11.96000000000001200 ) ) ;
#70 = EDGE_CURVE ( 'NONE', #178, #117, #128, .T. ) ;
#71 = VECTOR ( 'NONE', #37, 39.37007874015748100 ) ;
#72 =( NAMED_UNIT ( * ) PLANE_ANGLE_UNIT ( ) SI_UNIT ( $, .RADIAN. ) );
#73 = DIRECTION ( 'NONE',  ( -0.0000000000000000000, -0.0000000000000000000, -1.000000000000000000 ) ) ;
#74 = CARTESIAN_POINT ( 'NONE',  ( 0.0000000000000000000, 0.0000000000000000000, -12.00000000000000200 ) ) ;
#75 = ORIENTED_EDGE ( 'NONE', *, *, #22, .F. ) ;
#76 = MECHANICAL_DESIGN_GEOMETRIC_PRESENTATION_REPRESENTATION (  '', ( #103 ), #63 ) ;
#77 = DIRECTION ( 'NONE',  ( -1.000000000000000000, 0.0000000000000000000, 0.0000000000000000000 ) ) ;
#78 = ADVANCED_FACE ( 'NONE', ( #29 ), #148, .F. ) ;
#79 = FACE_OUTER_BOUND ( 'NONE', #163, .T. ) ;
#80 =( LENGTH_UNIT ( ) NAMED_UNIT ( * ) SI_UNIT ( $, .METRE. ) );
#81 =( NAMED_UNIT ( * ) PLANE_ANGLE_UNIT ( ) SI_UNIT ( $, .RADIAN. ) );
#82 = FACE_OUTER_BOUND ( 'NONE', #172, .T. ) ;
#83 = AXIS2_PLACEMENT_3D ( 'NONE', #113, #136, #49 ) ;
#84 = ADVANCED_FACE ( 'NONE', ( #220 ), #65, .T. ) ;
#85 = EDGE_CURVE ( 'NONE', #117, #178, #122, .T. ) ;
#86 = DIMENSIONAL_EXPONENTS ( 1.000000000000000000, 0.0000000000000000000, 0.0000000000000000000, 0.0000000000000000000, 0.0000000000000000000, 0.0000000000000000000, 0.0000000000000000000 ) ;
#87 = SURFACE_STYLE_FILL_AREA ( #155 ) ;
#88 = PRESENTATION_LAYER_ASSIGNMENT (  '', '', ( #103 ) ) ;
#89 = LENGTH_MEASURE_WITH_UNIT ( LENGTH_MEASURE( 0.02539999999999999900 ), #80 );
#90 = DIRECTION ( 'NONE',  ( 1.000000000000000000, 0.0000000000000000000, 0.0000000000000000000 ) ) ;
#91 = CYLINDRICAL_SURFACE ( 'NONE', #198, 0.3750000000000000600 ) ;
#92 = UNCERTAINTY_MEASURE_WITH_UNIT (LENGTH_MEASURE( 1.000000000000000100E-005 ), #184, 'distance_accuracy_value', 'NONE');
#93 = ORIENTED_EDGE ( 'NONE', *, *, #179, .T. ) ;
#94 = DIRECTION ( 'NONE',  ( 0.0000000000000000000, 0.0000000000000000000, 1.000000000000000000 ) ) ;
#95 = DIRECTION ( 'NONE',  ( 1.000000000000000000, 0.0000000000000000000, 0.0000000000000000000 ) ) ;
#96 = DIRECTION ( 'NONE',  ( -0.0000000000000000000, -0.0000000000000000000, -1.000000000000000000 ) ) ;
#97 = DIRECTION ( 'NONE',  ( -0.0000000000000000000, -0.0000000000000000000, -1.000000000000000000 ) ) ;
#98 = SURFACE_STYLE_FILL_AREA ( #147 ) ;
#99 = CARTESIAN_POINT ( 'NONE',  ( 0.0000000000000000000, 0.0000000000000000000, -11.95999999999999200 ) ) ;
#100 =( NAMED_UNIT ( * ) PLANE_ANGLE_UNIT ( ) SI_UNIT ( $, .RADIAN. ) );
#101 = EDGE_CURVE ( 'NONE', #141, #67, #176, .T. ) ;
#102 = FACE_OUTER_BOUND ( 'NONE', #160, .T. ) ;
#103 = STYLED_ITEM ( 'NONE', ( #196 ), #62 ) ;
#104 = ORIENTED_EDGE ( 'NONE', *, *, #70, .T. ) ;
#105 = AXIS2_PLACEMENT_3D ( 'NONE', #119, #97, #207 ) ;
#106 = LINE ( 'NONE', #145, #53 ) ;
#107 = EDGE_LOOP ( 'NONE', ( #60, #5, #219, #68 ) ) ;
#108 = DIRECTION ( 'NONE',  ( -1.000000000000000000, 0.0000000000000000000, 0.0000000000000000000 ) ) ;
#109 = PLANE ( 'NONE',  #14 ) ;
#110 = CIRCLE ( 'NONE', #30, 0.3750000000000000600 ) ;
#111 = PRODUCT ( 'RPSS12-24', 'RPSS12-24', '', ( #3 ) ) ;
#112 = DIRECTION ( 'NONE',  ( 0.0000000000000000000, 0.0000000000000000000, 1.000000000000000000 ) ) ;
#113 = CARTESIAN_POINT ( 'NONE',  ( 0.0000000000000000000, 0.0000000000000000000, 12.00000000000000200 ) ) ;
#114 = CARTESIAN_POINT ( 'NONE',  ( 0.3750000000000000600, 4.592425496802573600E-017, 11.96000000000001200 ) ) ;
#115 = VECTOR ( 'NONE', #96, 39.37007874015748100 ) ;
#116 = EDGE_LOOP ( 'NONE', ( #18, #104 ) ) ;
#117 = VERTEX_POINT ( 'NONE', #244 ) ;
#118 = DIRECTION ( 'NONE',  ( 0.0000000000000000000, 0.0000000000000000000, -1.000000000000000000 ) ) ;
#119 = CARTESIAN_POINT ( 'NONE',  ( 0.0000000000000000000, 0.0000000000000000000, 12.00000000000000200 ) ) ;
#120 = AXIS2_PLACEMENT_3D ( 'NONE', #241, #135, #13 ) ;
#121 = DIRECTION ( 'NONE',  ( -0.0000000000000000000, -0.0000000000000000000, 1.000000000000000000 ) ) ;
#122 = CIRCLE ( 'NONE', #51, 0.3349999999999885800 ) ;
#123 = DIRECTION ( 'NONE',  ( 1.000000000000000000, 0.0000000000000000000, 0.0000000000000000000 ) ) ;
#124 = PRODUCT_DEFINITION_CONTEXT ( 'detailed design', #140, 'design' ) ;
#125 = VERTEX_POINT ( 'NONE', #114 ) ;
#126 = VERTEX_POINT ( 'NONE', #137 ) ;
#127 = DIMENSIONAL_EXPONENTS ( 1.000000000000000000, 0.0000000000000000000, 0.0000000000000000000, 0.0000000000000000000, 0.0000000000000000000, 0.0000000000000000000, 0.0000000000000000000 ) ;
#128 = CIRCLE ( 'NONE', #190, 0.3349999999999885800 ) ;
#129 = ORIENTED_EDGE ( 'NONE', *, *, #239, .F. ) ;
#130 = CYLINDRICAL_SURFACE ( 'NONE', #105, 0.3750000000000000600 ) ;
#131 = ORIENTED_EDGE ( 'NONE', *, *, #229, .F. ) ;
#132 = AXIS2_PLACEMENT_3D ( 'NONE', #33, #167, #108 ) ;
#133 = DIRECTION ( 'NONE',  ( -0.0000000000000000000, -0.0000000000000000000, -1.000000000000000000 ) ) ;
#134 = CARTESIAN_POINT ( 'NONE',  ( 0.0000000000000000000, 0.0000000000000000000, -11.95999999999998700 ) ) ;
#135 = DIRECTION ( 'NONE',  ( 0.0000000000000000000, 0.0000000000000000000, 1.000000000000000000 ) ) ;
#136 = DIRECTION ( 'NONE',  ( 0.0000000000000000000, 0.0000000000000000000, -1.000000000000000000 ) ) ;
#137 = CARTESIAN_POINT ( 'NONE',  ( 0.3350000000000104000, 4.347496136973168200E-017, 12.00000000000000200 ) ) ;
#138 = DIRECTION ( 'NONE',  ( -0.0000000000000000000, -0.0000000000000000000, 1.000000000000000000 ) ) ;
#139 = CARTESIAN_POINT ( 'NONE',  ( 0.3750000000000000600, 0.0000000000000000000, -11.95999999999999200 ) ) ;
#140 = APPLICATION_CONTEXT ( 'automotive_design' ) ;
#141 = VERTEX_POINT ( 'NONE', #227 ) ;
#142 = AXIS2_PLACEMENT_3D ( 'NONE', #134, #11, #146 ) ;
#143 = ORIENTED_EDGE ( 'NONE', *, *, #216, .T. ) ;
#144 = LENGTH_MEASURE_WITH_UNIT ( LENGTH_MEASURE( 0.02539999999999999900 ), #58 );
#145 = CARTESIAN_POINT ( 'NONE',  ( -0.3750000000000000600, 0.0000000000000000000, 12.00000000000000200 ) ) ;
#146 = DIRECTION ( 'NONE',  ( 1.000000000000000000, 0.0000000000000000000, 0.0000000000000000000 ) ) ;
#147 = FILL_AREA_STYLE ('',( #183 ) ) ;
#148 = PLANE ( 'NONE',  #66 ) ;
#149 = DIRECTION ( 'NONE',  ( -0.7071067811865463500, 0.0000000000000000000, -0.7071067811865486800 ) ) ;
#150 = CARTESIAN_POINT ( 'NONE',  ( 0.0000000000000000000, 0.0000000000000000000, -11.95999999999999200 ) ) ;
#151 = LINE ( 'NONE', #240, #47 ) ;
#152 = CARTESIAN_POINT ( 'NONE',  ( 0.3750000000000000600, 4.592425496802573600E-017, 12.00000000000000200 ) ) ;
#153 = AXIS2_PLACEMENT_3D ( 'NONE', #69, #202, #90 ) ;
#154 = CARTESIAN_POINT ( 'NONE',  ( 0.0000000000000000000, 0.0000000000000000000, 0.0000000000000000000 ) ) ;
#155 = FILL_AREA_STYLE ('',( #21 ) ) ;
#156 = ORIENTED_EDGE ( 'NONE', *, *, #6, .F. ) ;
#157 = CONICAL_SURFACE ( 'NONE', #236, 0.3750000000000000600, 0.7853981633974739300 ) ;
#158 = PRODUCT_RELATED_PRODUCT_CATEGORY ( 'part', '', ( #111 ) ) ;
#159 = CIRCLE ( 'NONE', #142, 0.3750000000000000600 ) ;
#160 = EDGE_LOOP ( 'NONE', ( #209, #31, #208, #75 ) ) ;
#161 = ADVANCED_FACE ( 'NONE', ( #23 ), #59, .T. ) ;
#162 = CIRCLE ( 'NONE', #4, 0.3750000000000000600 ) ;
#163 = EDGE_LOOP ( 'NONE', ( #8, #93 ) ) ;
#164 = ORIENTED_EDGE ( 'NONE', *, *, #32, .F. ) ;
#165 = EDGE_CURVE ( 'NONE', #67, #125, #110, .T. ) ;
#166 = DIRECTION ( 'NONE',  ( 0.7071067811865463500, 8.659560562354918100E-017, -0.7071067811865486800 ) ) ;
#167 = DIRECTION ( 'NONE',  ( 0.0000000000000000000, 0.0000000000000000000, -1.000000000000000000 ) ) ;
#168 = LINE ( 'NONE', #152, #115 ) ;
#169 = SURFACE_STYLE_USAGE ( .BOTH. , #34 ) ;
#170 = CARTESIAN_POINT ( 'NONE',  ( 0.0000000000000000000, 0.0000000000000000000, -12.00000000000000200 ) ) ;
#171 = CARTESIAN_POINT ( 'NONE',  ( 0.3750000000000000600, 4.592425496802573600E-017, -11.95999999999998700 ) ) ;
#172 = EDGE_LOOP ( 'NONE', ( #215, #9, #143, #156 ) ) ;
#173 = VERTEX_POINT ( 'NONE', #171 ) ;
#174 = PRODUCT_DEFINITION_FORMATION_WITH_SPECIFIED_SOURCE ( 'ANY', '', #111, .NOT_KNOWN. ) ;
#175 = CARTESIAN_POINT ( 'NONE',  ( 0.0000000000000000000, 0.0000000000000000000, 12.00000000000000200 ) ) ;
#176 = LINE ( 'NONE', #187, #218 ) ;
#177 = SURFACE_STYLE_USAGE ( .BOTH. , #40 ) ;
#178 = VERTEX_POINT ( 'NONE', #52 ) ;
#179 = EDGE_CURVE ( 'NONE', #126, #141, #12, .T. ) ;
#180 = VECTOR ( 'NONE', #249, 39.37007874015748100 ) ;
#181 = SHAPE_DEFINITION_REPRESENTATION ( #194, #2 ) ;
#182 = PRODUCT_DEFINITION ( 'UNKNOWN', '', #174, #124 ) ;
#183 = FILL_AREA_STYLE_COLOUR ( '', #247 ) ;
#184 =( CONVERSION_BASED_UNIT ( 'INCH', #39 ) LENGTH_UNIT ( ) NAMED_UNIT ( #45 ) );
#185 = CARTESIAN_POINT ( 'NONE',  ( 0.0000000000000000000, 0.0000000000000000000, -12.00000000000000200 ) ) ;
#186 = EDGE_LOOP ( 'NONE', ( #243, #235, #214, #129 ) ) ;
#187 = CARTESIAN_POINT ( 'NONE',  ( -0.3350000000000104000, 0.0000000000000000000, 12.00000000000000200 ) ) ;
#188 = DIRECTION ( 'NONE',  ( 1.000000000000000000, 0.0000000000000000000, 0.0000000000000000000 ) ) ;
#189 = DIRECTION ( 'NONE',  ( -0.0000000000000000000, -0.0000000000000000000, -1.000000000000000000 ) ) ;
#190 = AXIS2_PLACEMENT_3D ( 'NONE', #185, #73, #205 ) ;
#191 =( CONVERSION_BASED_UNIT ( 'INCH', #144 ) LENGTH_UNIT ( ) NAMED_UNIT ( #86 ) );
#192 = ORIENTED_EDGE ( 'NONE', *, *, #32, .T. ) ;
#193 = COLOUR_RGB ( '',0.7921568627450980000, 0.8196078431372548800, 0.9333333333333333500 ) ;
#194 = PRODUCT_DEFINITION_SHAPE ( 'NONE', 'NONE',  #182 ) ;
#195 = AXIS2_PLACEMENT_3D ( 'NONE', #154, #232, #123 ) ;
#196 = PRESENTATION_STYLE_ASSIGNMENT (( #169 ) ) ;
#197 = ORIENTED_EDGE ( 'NONE', *, *, #239, .T. ) ;
#198 = AXIS2_PLACEMENT_3D ( 'NONE', #38, #189, #77 ) ;
#199 = PRESENTATION_STYLE_ASSIGNMENT (( #177 ) ) ;
#200 = CIRCLE ( 'NONE', #153, 0.3750000000000000600 ) ;
#201 = EDGE_CURVE ( 'NONE', #178, #25, #212, .T. ) ;
#202 = DIRECTION ( 'NONE',  ( 0.0000000000000000000, 0.0000000000000000000, -1.000000000000000000 ) ) ;
#203 = UNCERTAINTY_MEASURE_WITH_UNIT (LENGTH_MEASURE( 1.000000000000000100E-005 ), #191, 'distance_accuracy_value', 'NONE');
#204 =( NAMED_UNIT ( * ) SI_UNIT ( $, .STERADIAN. ) SOLID_ANGLE_UNIT ( ) );
#205 = DIRECTION ( 'NONE',  ( 1.000000000000000000, 0.0000000000000000000, 0.0000000000000000000 ) ) ;
#206 = DIRECTION ( 'NONE',  ( -0.0000000000000000000, -0.0000000000000000000, -1.000000000000000000 ) ) ;
#207 = DIRECTION ( 'NONE',  ( -1.000000000000000000, 0.0000000000000000000, 0.0000000000000000000 ) ) ;
#208 = ORIENTED_EDGE ( 'NONE', *, *, #101, .T. ) ;
#209 = ORIENTED_EDGE ( 'NONE', *, *, #44, .F. ) ;
#210 = DIRECTION ( 'NONE',  ( 1.000000000000000000, 0.0000000000000000000, 0.0000000000000000000 ) ) ;
#211 =( CONVERSION_BASED_UNIT ( 'INCH', #89 ) LENGTH_UNIT ( ) NAMED_UNIT ( #127 ) );
#212 = LINE ( 'NONE', #19, #71 ) ;
#213 =( NAMED_UNIT ( * ) SI_UNIT ( $, .STERADIAN. ) SOLID_ANGLE_UNIT ( ) );
#214 = ORIENTED_EDGE ( 'NONE', *, *, #216, .F. ) ;
#215 = ORIENTED_EDGE ( 'NONE', *, *, #165, .T. ) ;
#216 = EDGE_CURVE ( 'NONE', #173, #25, #162, .T. ) ;
#217 = ADVANCED_FACE ( 'NONE', ( #7 ), #130, .T. ) ;
#218 = VECTOR ( 'NONE', #149, 39.37007874015748100 ) ;
#219 = ORIENTED_EDGE ( 'NONE', *, *, #165, .F. ) ;
#220 = FACE_OUTER_BOUND ( 'NONE', #107, .T. ) ;
#221 = CARTESIAN_POINT ( 'NONE',  ( 0.0000000000000000000, 0.0000000000000000000, 12.00000000000000200 ) ) ;
#222 = CARTESIAN_POINT ( 'NONE',  ( -0.3750000000000000600, 0.0000000000000000000, 11.96000000000001200 ) ) ;
#223 = DIRECTION ( 'NONE',  ( 1.000000000000000000, 0.0000000000000000000, -0.0000000000000000000 ) ) ;
#224 =( GEOMETRIC_REPRESENTATION_CONTEXT ( 3 ) GLOBAL_UNCERTAINTY_ASSIGNED_CONTEXT ( ( #46 ) ) GLOBAL_UNIT_ASSIGNED_CONTEXT ( ( #211, #100, #231 ) ) REPRESENTATION_CONTEXT ( 'NONE', 'WORKASPACE' ) );
#225 = FACE_OUTER_BOUND ( 'NONE', #61, .T. ) ;
#226 = EDGE_LOOP ( 'NONE', ( #131, #27, #54, #192 ) ) ;
#227 = CARTESIAN_POINT ( 'NONE',  ( -0.3350000000000104000, 0.0000000000000000000, 12.00000000000000200 ) ) ;
#228 = CARTESIAN_POINT ( 'NONE',  ( 0.0000000000000000000, 0.0000000000000000000, 11.96000000000001200 ) ) ;
#229 = EDGE_CURVE ( 'NONE', #125, #173, #168, .T. ) ;
#230 = ADVANCED_FACE ( 'NONE', ( #82 ), #91, .T. ) ;
#231 =( NAMED_UNIT ( * ) SI_UNIT ( $, .STERADIAN. ) SOLID_ANGLE_UNIT ( ) );
#232 = DIRECTION ( 'NONE',  ( 0.0000000000000000000, 0.0000000000000000000, 1.000000000000000000 ) ) ;
#233 =( GEOMETRIC_REPRESENTATION_CONTEXT ( 3 ) GLOBAL_UNCERTAINTY_ASSIGNED_CONTEXT ( ( #203 ) ) GLOBAL_UNIT_ASSIGNED_CONTEXT ( ( #191, #81, #213 ) ) REPRESENTATION_CONTEXT ( 'NONE', 'WORKASPACE' ) );
#234 = ADVANCED_FACE ( 'NONE', ( #225 ), #157, .T. ) ;
#235 = ORIENTED_EDGE ( 'NONE', *, *, #201, .T. ) ;
#236 = AXIS2_PLACEMENT_3D ( 'NONE', #99, #121, #210 ) ;
#237 = CARTESIAN_POINT ( 'NONE',  ( -0.3750000000000000600, 0.0000000000000000000, -11.95999999999998700 ) ) ;
#238 = CONICAL_SURFACE ( 'NONE', #132, 0.3350000000000104000, 0.7853981633974466100 ) ;
#239 = EDGE_CURVE ( 'NONE', #117, #173, #35, .T. ) ;
#240 = CARTESIAN_POINT ( 'NONE',  ( 0.3350000000000104000, 4.102566777143761000E-017, 12.00000000000000200 ) ) ;
#241 = CARTESIAN_POINT ( 'NONE',  ( 0.0000000000000000000, 0.0000000000000000000, 12.00000000000000200 ) ) ;
#242 = DIRECTION ( 'NONE',  ( 1.000000000000000000, 0.0000000000000000000, -0.0000000000000000000 ) ) ;
#243 = ORIENTED_EDGE ( 'NONE', *, *, #70, .F. ) ;
#244 = CARTESIAN_POINT ( 'NONE',  ( 0.3349999999999885800, 0.0000000000000000000, -12.00000000000000200 ) ) ;
#245 = DIRECTION ( 'NONE',  ( 1.000000000000000000, 0.0000000000000000000, 0.0000000000000000000 ) ) ;
#246 = MECHANICAL_DESIGN_GEOMETRIC_PRESENTATION_REPRESENTATION (  '', ( #28 ), #233 ) ;
#247 = COLOUR_RGB ( '',0.7921568627450980000, 0.8196078431372548800, 0.9333333333333333500 ) ;
#248 = CARTESIAN_POINT ( 'NONE',  ( 0.0000000000000000000, 0.0000000000000000000, -11.95999999999998700 ) ) ;
#249 = DIRECTION ( 'NONE',  ( 0.7071067811865656700, 0.0000000000000000000, 0.7071067811865293700 ) ) ;
ENDSEC;
END-ISO-10303-21;
