ISO-10303-21;
HEADER;
FILE_DESCRIPTION (( 'STEP AP214' ),
    '1' );
FILE_NAME ('RPSS12-36.step',
    '2017-08-09T17:47:56',
    ( '' ),
    ( '' ),
    'SwSTEP 2.0',
    'SolidWorks 2017',
    '' );
FILE_SCHEMA (( 'AUTOMOTIVE_DESIGN' ));
ENDSEC;

DATA;
#1 = LENGTH_MEASURE_WITH_UNIT ( LENGTH_MEASURE( 0.02539999999999999900 ), #192 );
#2 = APPLICATION_PROTOCOL_DEFINITION ( 'draft international standard', 'automotive_design', 1998, #24 ) ;
#3 = EDGE_CURVE ( 'NONE', #133, #119, #25, .T. ) ;
#4 = PRODUCT_CONTEXT ( 'NONE', #24, 'mechanical' ) ;
#5 = ORIENTED_EDGE ( 'NONE', *, *, #243, .T. ) ;
#6 = AXIS2_PLACEMENT_3D ( 'NONE', #57, #237, #117 ) ;
#7 = ORIENTED_EDGE ( 'NONE', *, *, #201, .F. ) ;
#8 = EDGE_LOOP ( 'NONE', ( #121, #169, #153, #48 ) ) ;
#9 = LENGTH_MEASURE_WITH_UNIT ( LENGTH_MEASURE( 0.02539999999999999900 ), #58 );
#10 = AXIS2_PLACEMENT_3D ( 'NONE', #19, #155, #40 ) ;
#11 = ADVANCED_FACE ( 'NONE', ( #70 ), #132, .T. ) ;
#12 = CIRCLE ( 'NONE', #39, 0.3349999999999995800 ) ;
#13 = ADVANCED_FACE ( 'NONE', ( #124 ), #87, .F. ) ;
#14 = DIRECTION ( 'NONE',  ( 1.000000000000000000, 0.0000000000000000000, 0.0000000000000000000 ) ) ;
#15 = EDGE_CURVE ( 'NONE', #222, #133, #228, .T. ) ;
#16 = CARTESIAN_POINT ( 'NONE',  ( -0.3750000000000000600, 0.0000000000000000000, 18.00000000000000000 ) ) ;
#17 = EDGE_LOOP ( 'NONE', ( #31, #90 ) ) ;
#18 = DIRECTION ( 'NONE',  ( 0.0000000000000000000, 0.0000000000000000000, -1.000000000000000000 ) ) ;
#19 = CARTESIAN_POINT ( 'NONE',  ( 0.0000000000000000000, 0.0000000000000000000, -17.96000000000000400 ) ) ;
#20 = PRODUCT_DEFINITION ( 'UNKNOWN', '', #33, #240 ) ;
#21 = LINE ( 'NONE', #212, #225 ) ;
#22 = CARTESIAN_POINT ( 'NONE',  ( -0.3349999999999995800, 4.347496136973101700E-017, -18.00000000000000000 ) ) ;
#23 = DIRECTION ( 'NONE',  ( 0.0000000000000000000, 0.0000000000000000000, 1.000000000000000000 ) ) ;
#24 = APPLICATION_CONTEXT ( 'automotive_design' ) ;
#25 = CIRCLE ( 'NONE', #118, 0.3750000000000000600 ) ;
#26 = APPLICATION_PROTOCOL_DEFINITION ( 'draft international standard', 'automotive_design', 1998, #143 ) ;
#27 = AXIS2_PLACEMENT_3D ( 'NONE', #193, #75, #209 ) ;
#28 = FACE_OUTER_BOUND ( 'NONE', #149, .T. ) ;
#29 = EDGE_CURVE ( 'NONE', #59, #133, #221, .T. ) ;
#30 = FACE_OUTER_BOUND ( 'NONE', #42, .T. ) ;
#31 = ORIENTED_EDGE ( 'NONE', *, *, #104, .T. ) ;
#32 = ADVANCED_FACE ( 'NONE', ( #30 ), #241, .T. ) ;
#33 = PRODUCT_DEFINITION_FORMATION_WITH_SPECIFIED_SOURCE ( 'ANY', '', #34, .NOT_KNOWN. ) ;
#34 = PRODUCT ( 'RPSS12-36', 'RPSS12-36', '', ( #4 ) ) ;
#35 = ADVANCED_FACE ( 'NONE', ( #179 ), #37, .T. ) ;
#36 = CARTESIAN_POINT ( 'NONE',  ( 0.3750000000000000600, 0.0000000000000000000, -17.96000000000000400 ) ) ;
#37 = CYLINDRICAL_SURFACE ( 'NONE', #206, 0.3750000000000000600 ) ;
#38 = FILL_AREA_STYLE ('',( #92 ) ) ;
#39 = AXIS2_PLACEMENT_3D ( 'NONE', #113, #248, #137 ) ;
#40 = DIRECTION ( 'NONE',  ( 1.000000000000000000, 0.0000000000000000000, 0.0000000000000000000 ) ) ;
#41 = CIRCLE ( 'NONE', #199, 0.3750000000000000600 ) ;
#42 = EDGE_LOOP ( 'NONE', ( #163, #5, #65, #236 ) ) ;
#43 = SURFACE_SIDE_STYLE ('',( #154 ) ) ;
#44 = EDGE_CURVE ( 'NONE', #242, #59, #235, .T. ) ;
#45 = PRODUCT_RELATED_PRODUCT_CATEGORY ( 'part', '', ( #34 ) ) ;
#46 = EDGE_LOOP ( 'NONE', ( #229, #164, #66, #7 ) ) ;
#47 = AXIS2_PLACEMENT_3D ( 'NONE', #55, #114, #231 ) ;
#48 = ORIENTED_EDGE ( 'NONE', *, *, #51, .F. ) ;
#49 = ADVANCED_BREP_SHAPE_REPRESENTATION ( 'RPSS12-36', ( #67, #6 ), #156 ) ;
#50 = CARTESIAN_POINT ( 'NONE',  ( 0.0000000000000000000, 0.0000000000000000000, -18.00000000000000000 ) ) ;
#51 = EDGE_CURVE ( 'NONE', #105, #119, #190, .T. ) ;
#52 = DIRECTION ( 'NONE',  ( 0.7071067811865650000, 8.659560562355147300E-017, -0.7071067811865299200 ) ) ;
#53 = SURFACE_STYLE_USAGE ( .BOTH. , #171 ) ;
#54 = EDGE_LOOP ( 'NONE', ( #120, #102, #218, #207 ) ) ;
#55 = CARTESIAN_POINT ( 'NONE',  ( 0.0000000000000000000, 0.0000000000000000000, 18.00000000000000000 ) ) ;
#56 = DIRECTION ( 'NONE',  ( 1.000000000000000000, 0.0000000000000000000, -0.0000000000000000000 ) ) ;
#57 = CARTESIAN_POINT ( 'NONE',  ( 0.0000000000000000000, 0.0000000000000000000, 0.0000000000000000000 ) ) ;
#58 =( LENGTH_UNIT ( ) NAMED_UNIT ( * ) SI_UNIT ( $, .METRE. ) );
#59 = VERTEX_POINT ( 'NONE', #72 ) ;
#60 = AXIS2_PLACEMENT_3D ( 'NONE', #157, #173, #111 ) ;
#61 = PRODUCT_DEFINITION_SHAPE ( 'NONE', 'NONE',  #20 ) ;
#62 = CIRCLE ( 'NONE', #10, 0.3750000000000000600 ) ;
#63 = EDGE_CURVE ( 'NONE', #59, #105, #41, .T. ) ;
#64 = ORIENTED_EDGE ( 'NONE', *, *, #15, .T. ) ;
#65 = ORIENTED_EDGE ( 'NONE', *, *, #3, .F. ) ;
#66 = ORIENTED_EDGE ( 'NONE', *, *, #216, .F. ) ;
#67 = MANIFOLD_SOLID_BREP ( 'Chamfer1', #147 ) ;
#68 = CIRCLE ( 'NONE', #101, 0.3349999999999995800 ) ;
#69 = DIRECTION ( 'NONE',  ( -1.000000000000000000, 0.0000000000000000000, 0.0000000000000000000 ) ) ;
#70 = FACE_OUTER_BOUND ( 'NONE', #46, .T. ) ;
#71 = ORIENTED_EDGE ( 'NONE', *, *, #227, .T. ) ;
#72 = CARTESIAN_POINT ( 'NONE',  ( 0.3750000000000000600, 4.592425496802575500E-017, 17.95999999999999700 ) ) ;
#73 =( CONVERSION_BASED_UNIT ( 'INCH', #1 ) LENGTH_UNIT ( ) NAMED_UNIT ( #86 ) );
#74 = AXIS2_PLACEMENT_3D ( 'NONE', #94, #247, #230 ) ;
#75 = DIRECTION ( 'NONE',  ( 0.0000000000000000000, 0.0000000000000000000, 1.000000000000000000 ) ) ;
#76 = CONICAL_SURFACE ( 'NONE', #60, 0.3750000000000000600, 0.7853981633975005700 ) ;
#77 = ORIENTED_EDGE ( 'NONE', *, *, #104, .F. ) ;
#78 = CARTESIAN_POINT ( 'NONE',  ( 0.0000000000000000000, 0.0000000000000000000, 17.95999999999999700 ) ) ;
#79 =( LENGTH_UNIT ( ) NAMED_UNIT ( * ) SI_UNIT ( $, .METRE. ) );
#80 = VECTOR ( 'NONE', #167, 39.37007874015748100 ) ;
#81 =( NAMED_UNIT ( * ) PLANE_ANGLE_UNIT ( ) SI_UNIT ( $, .RADIAN. ) );
#82 = EDGE_LOOP ( 'NONE', ( #200, #77, #64, #99 ) ) ;
#83 = EDGE_CURVE ( 'NONE', #119, #133, #62, .T. ) ;
#84 = SURFACE_STYLE_FILL_AREA ( #38 ) ;
#85 = SHAPE_DEFINITION_REPRESENTATION ( #61, #49 ) ;
#86 = DIMENSIONAL_EXPONENTS ( 1.000000000000000000, 0.0000000000000000000, 0.0000000000000000000, 0.0000000000000000000, 0.0000000000000000000, 0.0000000000000000000, 0.0000000000000000000 ) ;
#87 = PLANE ( 'NONE',  #170 ) ;
#88 = VECTOR ( 'NONE', #134, 39.37007874015748100 ) ;
#89 = CARTESIAN_POINT ( 'NONE',  ( 0.0000000000000000000, 0.0000000000000000000, 18.00000000000000000 ) ) ;
#90 = ORIENTED_EDGE ( 'NONE', *, *, #189, .T. ) ;
#91 = EDGE_CURVE ( 'NONE', #123, #242, #213, .T. ) ;
#92 = FILL_AREA_STYLE_COLOUR ( '', #197 ) ;
#93 =( NAMED_UNIT ( * ) SI_UNIT ( $, .STERADIAN. ) SOLID_ANGLE_UNIT ( ) );
#94 = CARTESIAN_POINT ( 'NONE',  ( 0.0000000000000000000, 0.0000000000000000000, 18.00000000000000000 ) ) ;
#95 = UNCERTAINTY_MEASURE_WITH_UNIT (LENGTH_MEASURE( 1.000000000000000100E-005 ), #215, 'distance_accuracy_value', 'NONE');
#96 = CARTESIAN_POINT ( 'NONE',  ( 0.0000000000000000000, 0.0000000000000000000, 18.00000000000000000 ) ) ;
#97 = DIRECTION ( 'NONE',  ( 1.000000000000000000, 0.0000000000000000000, 0.0000000000000000000 ) ) ;
#98 =( NAMED_UNIT ( * ) PLANE_ANGLE_UNIT ( ) SI_UNIT ( $, .RADIAN. ) );
#99 = ORIENTED_EDGE ( 'NONE', *, *, #83, .F. ) ;
#100 = COLOUR_RGB ( '',0.7921568627450980000, 0.8196078431372548800, 0.9333333333333333500 ) ;
#101 = AXIS2_PLACEMENT_3D ( 'NONE', #116, #249, #140 ) ;
#102 = ORIENTED_EDGE ( 'NONE', *, *, #63, .T. ) ;
#103 = CARTESIAN_POINT ( 'NONE',  ( 0.0000000000000000000, 0.0000000000000000000, -17.96000000000000400 ) ) ;
#104 = EDGE_CURVE ( 'NONE', #222, #202, #12, .T. ) ;
#105 = VERTEX_POINT ( 'NONE', #172 ) ;
#106 = ADVANCED_FACE ( 'NONE', ( #115 ), #122, .T. ) ;
#107 = ADVANCED_FACE ( 'NONE', ( #165 ), #76, .T. ) ;
#108 = DIRECTION ( 'NONE',  ( 0.0000000000000000000, 0.0000000000000000000, 1.000000000000000000 ) ) ;
#109 = DIRECTION ( 'NONE',  ( -0.0000000000000000000, -0.0000000000000000000, -1.000000000000000000 ) ) ;
#110 = ORIENTED_EDGE ( 'NONE', *, *, #63, .F. ) ;
#111 = DIRECTION ( 'NONE',  ( 1.000000000000000000, 0.0000000000000000000, 0.0000000000000000000 ) ) ;
#112 = AXIS2_PLACEMENT_3D ( 'NONE', #96, #175, #56 ) ;
#113 = CARTESIAN_POINT ( 'NONE',  ( 0.0000000000000000000, 0.0000000000000000000, -18.00000000000000000 ) ) ;
#114 = DIRECTION ( 'NONE',  ( 0.0000000000000000000, 0.0000000000000000000, -1.000000000000000000 ) ) ;
#115 = FACE_OUTER_BOUND ( 'NONE', #8, .T. ) ;
#116 = CARTESIAN_POINT ( 'NONE',  ( 0.0000000000000000000, 0.0000000000000000000, -18.00000000000000000 ) ) ;
#117 = DIRECTION ( 'NONE',  ( 1.000000000000000000, 0.0000000000000000000, 0.0000000000000000000 ) ) ;
#118 = AXIS2_PLACEMENT_3D ( 'NONE', #103, #244, #188 ) ;
#119 = VERTEX_POINT ( 'NONE', #211 ) ;
#120 = ORIENTED_EDGE ( 'NONE', *, *, #29, .F. ) ;
#121 = ORIENTED_EDGE ( 'NONE', *, *, #216, .T. ) ;
#122 = CYLINDRICAL_SURFACE ( 'NONE', #74, 0.3750000000000000600 ) ;
#123 = VERTEX_POINT ( 'NONE', #195 ) ;
#124 = FACE_OUTER_BOUND ( 'NONE', #17, .T. ) ;
#125 = ORIENTED_EDGE ( 'NONE', *, *, #44, .F. ) ;
#126 = ADVANCED_FACE ( 'NONE', ( #28 ), #182, .T. ) ;
#127 = AXIS2_PLACEMENT_3D ( 'NONE', #78, #214, #97 ) ;
#128 = CIRCLE ( 'NONE', #144, 0.3349999999999951900 ) ;
#129 = DIRECTION ( 'NONE',  ( 0.0000000000000000000, 0.0000000000000000000, -1.000000000000000000 ) ) ;
#130 = CARTESIAN_POINT ( 'NONE',  ( 0.3750000000000000600, 4.592425496802575500E-017, 18.00000000000000000 ) ) ;
#131 = DIMENSIONAL_EXPONENTS ( 1.000000000000000000, 0.0000000000000000000, 0.0000000000000000000, 0.0000000000000000000, 0.0000000000000000000, 0.0000000000000000000, 0.0000000000000000000 ) ;
#132 = CONICAL_SURFACE ( 'NONE', #135, 0.3349999999999951900, 0.7853981633974731500 ) ;
#133 = VERTEX_POINT ( 'NONE', #139 ) ;
#134 = DIRECTION ( 'NONE',  ( -0.0000000000000000000, -0.0000000000000000000, -1.000000000000000000 ) ) ;
#135 = AXIS2_PLACEMENT_3D ( 'NONE', #150, #129, #239 ) ;
#136 = CARTESIAN_POINT ( 'NONE',  ( 0.0000000000000000000, 0.0000000000000000000, 17.95999999999999700 ) ) ;
#137 = DIRECTION ( 'NONE',  ( 1.000000000000000000, 0.0000000000000000000, 0.0000000000000000000 ) ) ;
#138 = LINE ( 'NONE', #176, #187 ) ;
#139 = CARTESIAN_POINT ( 'NONE',  ( 0.3750000000000000600, 4.592425496802575500E-017, -17.96000000000000400 ) ) ;
#140 = DIRECTION ( 'NONE',  ( 1.000000000000000000, 0.0000000000000000000, 0.0000000000000000000 ) ) ;
#141 = CARTESIAN_POINT ( 'NONE',  ( 0.0000000000000000000, 0.0000000000000000000, 18.00000000000000000 ) ) ;
#142 = VECTOR ( 'NONE', #52, 39.37007874015748900 ) ;
#143 = APPLICATION_CONTEXT ( 'automotive_design' ) ;
#144 = AXIS2_PLACEMENT_3D ( 'NONE', #141, #23, #160 ) ;
#145 = UNCERTAINTY_MEASURE_WITH_UNIT (LENGTH_MEASURE( 1.000000000000000100E-005 ), #73, 'distance_accuracy_value', 'NONE');
#146 = LENGTH_MEASURE_WITH_UNIT ( LENGTH_MEASURE( 0.02539999999999999900 ), #79 );
#147 = CLOSED_SHELL ( 'NONE', ( #11, #32, #106, #35, #186, #13, #107, #126 ) ) ;
#148 = PRESENTATION_STYLE_ASSIGNMENT (( #53 ) ) ;
#149 = EDGE_LOOP ( 'NONE', ( #125, #191, #224, #110 ) ) ;
#150 = CARTESIAN_POINT ( 'NONE',  ( 0.0000000000000000000, 0.0000000000000000000, 18.00000000000000000 ) ) ;
#151 = CARTESIAN_POINT ( 'NONE',  ( 0.0000000000000000000, 0.0000000000000000000, -17.96000000000000400 ) ) ;
#152 = DIRECTION ( 'NONE',  ( 1.000000000000000000, 0.0000000000000000000, 0.0000000000000000000 ) ) ;
#153 = ORIENTED_EDGE ( 'NONE', *, *, #3, .T. ) ;
#154 = SURFACE_STYLE_FILL_AREA ( #161 ) ;
#155 = DIRECTION ( 'NONE',  ( -0.0000000000000000000, -0.0000000000000000000, 1.000000000000000000 ) ) ;
#156 =( GEOMETRIC_REPRESENTATION_CONTEXT ( 3 ) GLOBAL_UNCERTAINTY_ASSIGNED_CONTEXT ( ( #95 ) ) GLOBAL_UNIT_ASSIGNED_CONTEXT ( ( #215, #98, #234 ) ) REPRESENTATION_CONTEXT ( 'NONE', 'WORKASPACE' ) );
#157 = CARTESIAN_POINT ( 'NONE',  ( 0.0000000000000000000, 0.0000000000000000000, -17.96000000000000400 ) ) ;
#158 = PLANE ( 'NONE',  #112 ) ;
#159 = FILL_AREA_STYLE_COLOUR ( '', #100 ) ;
#160 = DIRECTION ( 'NONE',  ( 1.000000000000000000, 0.0000000000000000000, 0.0000000000000000000 ) ) ;
#161 = FILL_AREA_STYLE ('',( #159 ) ) ;
#162 = AXIS2_PLACEMENT_3D ( 'NONE', #151, #205, #14 ) ;
#163 = ORIENTED_EDGE ( 'NONE', *, *, #189, .F. ) ;
#164 = ORIENTED_EDGE ( 'NONE', *, *, #44, .T. ) ;
#165 = FACE_OUTER_BOUND ( 'NONE', #82, .T. ) ;
#166 = DIMENSIONAL_EXPONENTS ( 1.000000000000000000, 0.0000000000000000000, 0.0000000000000000000, 0.0000000000000000000, 0.0000000000000000000, 0.0000000000000000000, 0.0000000000000000000 ) ;
#167 = DIRECTION ( 'NONE',  ( 0.7071067811865844300, 0.0000000000000000000, 0.7071067811865107100 ) ) ;
#168 = CARTESIAN_POINT ( 'NONE',  ( 0.3349999999999951900, 4.102566777143574200E-017, 18.00000000000000000 ) ) ;
#169 = ORIENTED_EDGE ( 'NONE', *, *, #29, .T. ) ;
#170 = AXIS2_PLACEMENT_3D ( 'NONE', #50, #108, #245 ) ;
#171 = SURFACE_SIDE_STYLE ('',( #84 ) ) ;
#172 = CARTESIAN_POINT ( 'NONE',  ( -0.3750000000000000600, 0.0000000000000000000, 17.95999999999999700 ) ) ;
#173 = DIRECTION ( 'NONE',  ( -0.0000000000000000000, -0.0000000000000000000, 1.000000000000000000 ) ) ;
#174 = CIRCLE ( 'NONE', #127, 0.3750000000000000600 ) ;
#175 = DIRECTION ( 'NONE',  ( 0.0000000000000000000, 0.0000000000000000000, 1.000000000000000000 ) ) ;
#176 = CARTESIAN_POINT ( 'NONE',  ( -0.3750000000000000600, 4.592425496802575500E-017, -17.96000000000000400 ) ) ;
#177 = DIRECTION ( 'NONE',  ( -0.7071067811865844300, 8.659560562355386500E-017, 0.7071067811865107100 ) ) ;
#178 = SURFACE_STYLE_USAGE ( .BOTH. , #43 ) ;
#179 = FACE_OUTER_BOUND ( 'NONE', #54, .T. ) ;
#180 = EDGE_LOOP ( 'NONE', ( #184, #71 ) ) ;
#181 = STYLED_ITEM ( 'NONE', ( #203 ), #49 ) ;
#182 = CONICAL_SURFACE ( 'NONE', #47, 0.3349999999999951900, 0.7853981633974731500 ) ;
#183 = VECTOR ( 'NONE', #226, 39.37007874015748100 ) ;
#184 = ORIENTED_EDGE ( 'NONE', *, *, #91, .T. ) ;
#185 = STYLED_ITEM ( 'NONE', ( #148 ), #67 ) ;
#186 = ADVANCED_FACE ( 'NONE', ( #220 ), #158, .T. ) ;
#187 = VECTOR ( 'NONE', #177, 39.37007874015748100 ) ;
#188 = DIRECTION ( 'NONE',  ( 1.000000000000000000, 0.0000000000000000000, 0.0000000000000000000 ) ) ;
#189 = EDGE_CURVE ( 'NONE', #202, #222, #68, .T. ) ;
#190 = LINE ( 'NONE', #16, #88 ) ;
#191 = ORIENTED_EDGE ( 'NONE', *, *, #91, .F. ) ;
#192 =( LENGTH_UNIT ( ) NAMED_UNIT ( * ) SI_UNIT ( $, .METRE. ) );
#193 = CARTESIAN_POINT ( 'NONE',  ( 0.0000000000000000000, 0.0000000000000000000, 18.00000000000000000 ) ) ;
#194 = PRESENTATION_LAYER_ASSIGNMENT (  '', '', ( #181 ) ) ;
#195 = CARTESIAN_POINT ( 'NONE',  ( -0.3349999999999951900, 0.0000000000000000000, 18.00000000000000000 ) ) ;
#196 = CARTESIAN_POINT ( 'NONE',  ( 0.3349999999999995800, 0.0000000000000000000, -18.00000000000000000 ) ) ;
#197 = COLOUR_RGB ( '',0.7921568627450980000, 0.8196078431372548800, 0.9333333333333333500 ) ;
#198 =( CONVERSION_BASED_UNIT ( 'INCH', #9 ) LENGTH_UNIT ( ) NAMED_UNIT ( #131 ) );
#199 = AXIS2_PLACEMENT_3D ( 'NONE', #136, #18, #152 ) ;
#200 = ORIENTED_EDGE ( 'NONE', *, *, #243, .F. ) ;
#201 = EDGE_CURVE ( 'NONE', #123, #105, #21, .T. ) ;
#202 = VERTEX_POINT ( 'NONE', #22 ) ;
#203 = PRESENTATION_STYLE_ASSIGNMENT (( #178 ) ) ;
#204 = MECHANICAL_DESIGN_GEOMETRIC_PRESENTATION_REPRESENTATION (  '', ( #181 ), #219 ) ;
#205 = DIRECTION ( 'NONE',  ( -0.0000000000000000000, -0.0000000000000000000, 1.000000000000000000 ) ) ;
#206 = AXIS2_PLACEMENT_3D ( 'NONE', #89, #109, #69 ) ;
#207 = ORIENTED_EDGE ( 'NONE', *, *, #83, .T. ) ;
#208 =( NAMED_UNIT ( * ) PLANE_ANGLE_UNIT ( ) SI_UNIT ( $, .RADIAN. ) );
#209 = DIRECTION ( 'NONE',  ( 1.000000000000000000, 0.0000000000000000000, 0.0000000000000000000 ) ) ;
#210 = UNCERTAINTY_MEASURE_WITH_UNIT (LENGTH_MEASURE( 1.000000000000000100E-005 ), #198, 'distance_accuracy_value', 'NONE');
#211 = CARTESIAN_POINT ( 'NONE',  ( -0.3750000000000000600, 0.0000000000000000000, -17.96000000000000400 ) ) ;
#212 = CARTESIAN_POINT ( 'NONE',  ( -0.3349999999999951900, 0.0000000000000000000, 18.00000000000000000 ) ) ;
#213 = CIRCLE ( 'NONE', #27, 0.3349999999999951900 ) ;
#214 = DIRECTION ( 'NONE',  ( 0.0000000000000000000, 0.0000000000000000000, -1.000000000000000000 ) ) ;
#215 =( CONVERSION_BASED_UNIT ( 'INCH', #146 ) LENGTH_UNIT ( ) NAMED_UNIT ( #166 ) );
#216 = EDGE_CURVE ( 'NONE', #105, #59, #174, .T. ) ;
#217 =( NAMED_UNIT ( * ) SI_UNIT ( $, .STERADIAN. ) SOLID_ANGLE_UNIT ( ) );
#218 = ORIENTED_EDGE ( 'NONE', *, *, #51, .T. ) ;
#219 =( GEOMETRIC_REPRESENTATION_CONTEXT ( 3 ) GLOBAL_UNCERTAINTY_ASSIGNED_CONTEXT ( ( #210 ) ) GLOBAL_UNIT_ASSIGNED_CONTEXT ( ( #198, #81, #217 ) ) REPRESENTATION_CONTEXT ( 'NONE', 'WORKASPACE' ) );
#220 = FACE_OUTER_BOUND ( 'NONE', #180, .T. ) ;
#221 = LINE ( 'NONE', #130, #183 ) ;
#222 = VERTEX_POINT ( 'NONE', #196 ) ;
#223 = PRESENTATION_LAYER_ASSIGNMENT (  '', '', ( #185 ) ) ;
#224 = ORIENTED_EDGE ( 'NONE', *, *, #201, .T. ) ;
#225 = VECTOR ( 'NONE', #232, 39.37007874015748900 ) ;
#226 = DIRECTION ( 'NONE',  ( -0.0000000000000000000, -0.0000000000000000000, -1.000000000000000000 ) ) ;
#227 = EDGE_CURVE ( 'NONE', #242, #123, #128, .T. ) ;
#228 = LINE ( 'NONE', #36, #80 ) ;
#229 = ORIENTED_EDGE ( 'NONE', *, *, #227, .F. ) ;
#230 = DIRECTION ( 'NONE',  ( -1.000000000000000000, 0.0000000000000000000, 0.0000000000000000000 ) ) ;
#231 = DIRECTION ( 'NONE',  ( -1.000000000000000000, 0.0000000000000000000, 0.0000000000000000000 ) ) ;
#232 = DIRECTION ( 'NONE',  ( -0.7071067811865650000, 0.0000000000000000000, -0.7071067811865299200 ) ) ;
#233 = CARTESIAN_POINT ( 'NONE',  ( 0.3349999999999951900, 4.347496136973074500E-017, 18.00000000000000000 ) ) ;
#234 =( NAMED_UNIT ( * ) SI_UNIT ( $, .STERADIAN. ) SOLID_ANGLE_UNIT ( ) );
#235 = LINE ( 'NONE', #168, #142 ) ;
#236 = ORIENTED_EDGE ( 'NONE', *, *, #15, .F. ) ;
#237 = DIRECTION ( 'NONE',  ( 0.0000000000000000000, 0.0000000000000000000, 1.000000000000000000 ) ) ;
#238 = MECHANICAL_DESIGN_GEOMETRIC_PRESENTATION_REPRESENTATION (  '', ( #185 ), #246 ) ;
#239 = DIRECTION ( 'NONE',  ( -1.000000000000000000, 0.0000000000000000000, 0.0000000000000000000 ) ) ;
#240 = PRODUCT_DEFINITION_CONTEXT ( 'detailed design', #143, 'design' ) ;
#241 = CONICAL_SURFACE ( 'NONE', #162, 0.3750000000000000600, 0.7853981633975005700 ) ;
#242 = VERTEX_POINT ( 'NONE', #233 ) ;
#243 = EDGE_CURVE ( 'NONE', #202, #119, #138, .T. ) ;
#244 = DIRECTION ( 'NONE',  ( -0.0000000000000000000, -0.0000000000000000000, 1.000000000000000000 ) ) ;
#245 = DIRECTION ( 'NONE',  ( 1.000000000000000000, 0.0000000000000000000, -0.0000000000000000000 ) ) ;
#246 =( GEOMETRIC_REPRESENTATION_CONTEXT ( 3 ) GLOBAL_UNCERTAINTY_ASSIGNED_CONTEXT ( ( #145 ) ) GLOBAL_UNIT_ASSIGNED_CONTEXT ( ( #73, #208, #93 ) ) REPRESENTATION_CONTEXT ( 'NONE', 'WORKASPACE' ) );
#247 = DIRECTION ( 'NONE',  ( -0.0000000000000000000, -0.0000000000000000000, -1.000000000000000000 ) ) ;
#248 = DIRECTION ( 'NONE',  ( -0.0000000000000000000, -0.0000000000000000000, -1.000000000000000000 ) ) ;
#249 = DIRECTION ( 'NONE',  ( -0.0000000000000000000, -0.0000000000000000000, -1.000000000000000000 ) ) ;
ENDSEC;
END-ISO-10303-21;
