ISO-10303-21;
HEADER;
FILE_DESCRIPTION (( 'STEP AP214' ),
    '1' );
FILE_NAME ('RPSS16-12.step',
    '2017-08-09T17:48:13',
    ( '' ),
    ( '' ),
    'SwSTEP 2.0',
    'SolidWorks 2017',
    '' );
FILE_SCHEMA (( 'AUTOMOTIVE_DESIGN' ));
ENDSEC;

DATA;
#1 = ORIENTED_EDGE ( 'NONE', *, *, #17, .F. ) ;
#2 = COLOUR_RGB ( '',0.7921568627450980000, 0.8196078431372548800, 0.9333333333333333500 ) ;
#3 = CARTESIAN_POINT ( 'NONE',  ( 0.4600000000000042900, 5.878304635907321800E-017, 6.000000000000000900 ) ) ;
#4 = CIRCLE ( 'NONE', #95, 0.5000000000000000000 ) ;
#5 = EDGE_CURVE ( 'NONE', #207, #127, #228, .T. ) ;
#6 = ORIENTED_EDGE ( 'NONE', *, *, #59, .T. ) ;
#7 = DIRECTION ( 'NONE',  ( -0.0000000000000000000, -0.0000000000000000000, 1.000000000000000000 ) ) ;
#8 =( CONVERSION_BASED_UNIT ( 'INCH', #29 ) LENGTH_UNIT ( ) NAMED_UNIT ( #49 ) );
#9 = ADVANCED_FACE ( 'NONE', ( #27 ), #125, .T. ) ;
#10 = MECHANICAL_DESIGN_GEOMETRIC_PRESENTATION_REPRESENTATION (  '', ( #37 ), #247 ) ;
#11 = DIRECTION ( 'NONE',  ( -1.000000000000000000, 0.0000000000000000000, 0.0000000000000000000 ) ) ;
#12 = FACE_OUTER_BOUND ( 'NONE', #200, .T. ) ;
#13 = EDGE_LOOP ( 'NONE', ( #236, #173, #226, #60 ) ) ;
#14 = CARTESIAN_POINT ( 'NONE',  ( 0.0000000000000000000, 0.0000000000000000000, 5.960000000000004400 ) ) ;
#15 =( NAMED_UNIT ( * ) SI_UNIT ( $, .STERADIAN. ) SOLID_ANGLE_UNIT ( ) );
#16 = CIRCLE ( 'NONE', #206, 0.5000000000000000000 ) ;
#17 = EDGE_CURVE ( 'NONE', #230, #207, #171, .T. ) ;
#18 = ORIENTED_EDGE ( 'NONE', *, *, #103, .T. ) ;
#19 = CARTESIAN_POINT ( 'NONE',  ( 0.0000000000000000000, 0.0000000000000000000, -6.000000000000000900 ) ) ;
#20 = FACE_OUTER_BOUND ( 'NONE', #38, .T. ) ;
#21 = PRESENTATION_LAYER_ASSIGNMENT (  '', '', ( #37 ) ) ;
#22 = ORIENTED_EDGE ( 'NONE', *, *, #42, .T. ) ;
#23 = DIRECTION ( 'NONE',  ( 0.0000000000000000000, 0.0000000000000000000, -1.000000000000000000 ) ) ;
#24 = DIRECTION ( 'NONE',  ( 0.0000000000000000000, 0.0000000000000000000, 1.000000000000000000 ) ) ;
#25 = ADVANCED_FACE ( 'NONE', ( #131 ), #214, .T. ) ;
#26 =( NAMED_UNIT ( * ) SI_UNIT ( $, .STERADIAN. ) SOLID_ANGLE_UNIT ( ) );
#27 = FACE_OUTER_BOUND ( 'NONE', #13, .T. ) ;
#28 = EDGE_CURVE ( 'NONE', #98, #230, #224, .T. ) ;
#29 = LENGTH_MEASURE_WITH_UNIT ( LENGTH_MEASURE( 0.02539999999999999900 ), #130 );
#30 = VERTEX_POINT ( 'NONE', #77 ) ;
#31 = DIRECTION ( 'NONE',  ( 0.0000000000000000000, 0.0000000000000000000, -1.000000000000000000 ) ) ;
#32 = DIRECTION ( 'NONE',  ( 1.000000000000000000, 0.0000000000000000000, 0.0000000000000000000 ) ) ;
#33 =( NAMED_UNIT ( * ) SI_UNIT ( $, .STERADIAN. ) SOLID_ANGLE_UNIT ( ) );
#34 = ORIENTED_EDGE ( 'NONE', *, *, #59, .F. ) ;
#35 = SURFACE_STYLE_FILL_AREA ( #210 ) ;
#36 = DIRECTION ( 'NONE',  ( 0.0000000000000000000, 0.0000000000000000000, 1.000000000000000000 ) ) ;
#37 = STYLED_ITEM ( 'NONE', ( #96 ), #182 ) ;
#38 = EDGE_LOOP ( 'NONE', ( #6, #109 ) ) ;
#39 = DIRECTION ( 'NONE',  ( 1.000000000000000000, 0.0000000000000000000, 0.0000000000000000000 ) ) ;
#40 = VECTOR ( 'NONE', #164, 39.37007874015748100 ) ;
#41 = CIRCLE ( 'NONE', #191, 0.4600000000000042900 ) ;
#42 = EDGE_CURVE ( 'NONE', #127, #231, #16, .T. ) ;
#43 = DIRECTION ( 'NONE',  ( -0.7071067811865421300, 0.0000000000000000000, -0.7071067811865530100 ) ) ;
#44 = DIRECTION ( 'NONE',  ( 1.000000000000000000, 0.0000000000000000000, 0.0000000000000000000 ) ) ;
#45 = ORIENTED_EDGE ( 'NONE', *, *, #159, .F. ) ;
#46 = PLANE ( 'NONE',  #105 ) ;
#47 = CARTESIAN_POINT ( 'NONE',  ( 0.5000000000000000000, 6.123233995736764800E-017, 6.000000000000000900 ) ) ;
#48 = CARTESIAN_POINT ( 'NONE',  ( 0.0000000000000000000, 0.0000000000000000000, -5.959999999999989300 ) ) ;
#49 = DIMENSIONAL_EXPONENTS ( 1.000000000000000000, 0.0000000000000000000, 0.0000000000000000000, 0.0000000000000000000, 0.0000000000000000000, 0.0000000000000000000, 0.0000000000000000000 ) ;
#50 = AXIS2_PLACEMENT_3D ( 'NONE', #196, #87, #44 ) ;
#51 = LINE ( 'NONE', #235, #195 ) ;
#52 = DIRECTION ( 'NONE',  ( -1.000000000000000000, 0.0000000000000000000, 0.0000000000000000000 ) ) ;
#53 = ORIENTED_EDGE ( 'NONE', *, *, #17, .T. ) ;
#54 = SHAPE_DEFINITION_REPRESENTATION ( #176, #199 ) ;
#55 = CARTESIAN_POINT ( 'NONE',  ( 0.4599999999999890300, 0.0000000000000000000, -6.000000000000000900 ) ) ;
#56 = APPLICATION_PROTOCOL_DEFINITION ( 'draft international standard', 'automotive_design', 1998, #78 ) ;
#57 = PRODUCT_CONTEXT ( 'NONE', #78, 'mechanical' ) ;
#58 = FACE_OUTER_BOUND ( 'NONE', #177, .T. ) ;
#59 = EDGE_CURVE ( 'NONE', #218, #98, #41, .T. ) ;
#60 = ORIENTED_EDGE ( 'NONE', *, *, #103, .F. ) ;
#61 = DIRECTION ( 'NONE',  ( 1.000000000000000000, 0.0000000000000000000, -0.0000000000000000000 ) ) ;
#62 = AXIS2_PLACEMENT_3D ( 'NONE', #129, #7, #143 ) ;
#63 = CIRCLE ( 'NONE', #122, 0.4600000000000042900 ) ;
#64 = CARTESIAN_POINT ( 'NONE',  ( 0.0000000000000000000, 0.0000000000000000000, 6.000000000000000900 ) ) ;
#65 = VERTEX_POINT ( 'NONE', #55 ) ;
#66 = CARTESIAN_POINT ( 'NONE',  ( 0.0000000000000000000, 0.0000000000000000000, 6.000000000000000900 ) ) ;
#67 = DIRECTION ( 'NONE',  ( -0.0000000000000000000, -0.0000000000000000000, 1.000000000000000000 ) ) ;
#68 = DIRECTION ( 'NONE',  ( -0.7071067811865421300, 8.659560562354867500E-017, 0.7071067811865530100 ) ) ;
#69 = PRODUCT_RELATED_PRODUCT_CATEGORY ( 'part', '', ( #248 ) ) ;
#70 = CARTESIAN_POINT ( 'NONE',  ( -0.4600000000000042900, 0.0000000000000000000, 6.000000000000000900 ) ) ;
#71 = ADVANCED_FACE ( 'NONE', ( #166 ), #89, .F. ) ;
#72 = VECTOR ( 'NONE', #107, 39.37007874015748100 ) ;
#73 =( CONVERSION_BASED_UNIT ( 'INCH', #100 ) LENGTH_UNIT ( ) NAMED_UNIT ( #225 ) );
#74 = PRODUCT_DEFINITION_CONTEXT ( 'detailed design', #190, 'design' ) ;
#75 = EDGE_CURVE ( 'NONE', #65, #30, #121, .T. ) ;
#76 = ORIENTED_EDGE ( 'NONE', *, *, #172, .F. ) ;
#77 = CARTESIAN_POINT ( 'NONE',  ( -0.4599999999999890300, 5.878304635907228100E-017, -6.000000000000000900 ) ) ;
#78 = APPLICATION_CONTEXT ( 'automotive_design' ) ;
#79 = CIRCLE ( 'NONE', #139, 0.4599999999999890300 ) ;
#80 = APPLICATION_PROTOCOL_DEFINITION ( 'draft international standard', 'automotive_design', 1998, #190 ) ;
#81 = AXIS2_PLACEMENT_3D ( 'NONE', #64, #178, #160 ) ;
#82 = EDGE_LOOP ( 'NONE', ( #144, #132 ) ) ;
#83 = PRODUCT_DEFINITION_FORMATION_WITH_SPECIFIED_SOURCE ( 'ANY', '', #248, .NOT_KNOWN. ) ;
#84 = ORIENTED_EDGE ( 'NONE', *, *, #159, .T. ) ;
#85 = CARTESIAN_POINT ( 'NONE',  ( -0.5000000000000000000, 6.123233995736766000E-017, -5.959999999999989300 ) ) ;
#86 = EDGE_CURVE ( 'NONE', #30, #65, #79, .T. ) ;
#87 = DIRECTION ( 'NONE',  ( -0.0000000000000000000, -0.0000000000000000000, 1.000000000000000000 ) ) ;
#88 = DIRECTION ( 'NONE',  ( 1.000000000000000000, 0.0000000000000000000, 0.0000000000000000000 ) ) ;
#89 = PLANE ( 'NONE',  #152 ) ;
#90 = DIRECTION ( 'NONE',  ( 0.7071067811865421300, 0.0000000000000000000, 0.7071067811865530100 ) ) ;
#91 = DIRECTION ( 'NONE',  ( -0.0000000000000000000, -0.0000000000000000000, 1.000000000000000000 ) ) ;
#92 = ORIENTED_EDGE ( 'NONE', *, *, #5, .F. ) ;
#93 = ADVANCED_FACE ( 'NONE', ( #20 ), #46, .T. ) ;
#94 = CARTESIAN_POINT ( 'NONE',  ( 0.5000000000000000000, 6.123233995736764800E-017, -5.959999999999989300 ) ) ;
#95 = AXIS2_PLACEMENT_3D ( 'NONE', #141, #23, #161 ) ;
#96 = PRESENTATION_STYLE_ASSIGNMENT (( #237 ) ) ;
#97 = DIRECTION ( 'NONE',  ( 0.0000000000000000000, 0.0000000000000000000, -1.000000000000000000 ) ) ;
#98 = VERTEX_POINT ( 'NONE', #3 ) ;
#99 = PRODUCT_DEFINITION ( 'UNKNOWN', '', #83, #74 ) ;
#100 = LENGTH_MEASURE_WITH_UNIT ( LENGTH_MEASURE( 0.02539999999999999900 ), #186 );
#101 = SURFACE_SIDE_STYLE ('',( #35 ) ) ;
#102 = FACE_OUTER_BOUND ( 'NONE', #154, .T. ) ;
#103 = EDGE_CURVE ( 'NONE', #218, #207, #212, .T. ) ;
#104 = ORIENTED_EDGE ( 'NONE', *, *, #28, .F. ) ;
#105 = AXIS2_PLACEMENT_3D ( 'NONE', #138, #174, #61 ) ;
#106 = VECTOR ( 'NONE', #68, 39.37007874015748100 ) ;
#107 = DIRECTION ( 'NONE',  ( 0.7071067811865421300, 8.659560562354867500E-017, -0.7071067811865530100 ) ) ;
#108 = CARTESIAN_POINT ( 'NONE',  ( -0.5000000000000000000, 0.0000000000000000000, -5.959999999999989300 ) ) ;
#109 = ORIENTED_EDGE ( 'NONE', *, *, #126, .T. ) ;
#110 = CARTESIAN_POINT ( 'NONE',  ( 0.0000000000000000000, 0.0000000000000000000, 6.000000000000000900 ) ) ;
#111 = AXIS2_PLACEMENT_3D ( 'NONE', #147, #36, #170 ) ;
#112 = SURFACE_SIDE_STYLE ('',( #249 ) ) ;
#113 = ADVANCED_FACE ( 'NONE', ( #58 ), #205, .T. ) ;
#114 = DIRECTION ( 'NONE',  ( -0.0000000000000000000, -0.0000000000000000000, -1.000000000000000000 ) ) ;
#115 = VECTOR ( 'NONE', #43, 39.37007874015748100 ) ;
#116 = EDGE_CURVE ( 'NONE', #207, #230, #4, .T. ) ;
#117 = ORIENTED_EDGE ( 'NONE', *, *, #136, .F. ) ;
#118 = DIRECTION ( 'NONE',  ( -1.000000000000000000, 0.0000000000000000000, 0.0000000000000000000 ) ) ;
#119 = UNCERTAINTY_MEASURE_WITH_UNIT (LENGTH_MEASURE( 1.000000000000000100E-005 ), #8, 'distance_accuracy_value', 'NONE');
#120 =( LENGTH_UNIT ( ) NAMED_UNIT ( * ) SI_UNIT ( $, .METRE. ) );
#121 = CIRCLE ( 'NONE', #167, 0.4599999999999890300 ) ;
#122 = AXIS2_PLACEMENT_3D ( 'NONE', #66, #197, #88 ) ;
#123 = ORIENTED_EDGE ( 'NONE', *, *, #42, .F. ) ;
#124 = DIRECTION ( 'NONE',  ( 1.000000000000000000, 0.0000000000000000000, 0.0000000000000000000 ) ) ;
#125 = CONICAL_SURFACE ( 'NONE', #240, 0.4600000000000042900, 0.7853981633974407300 ) ;
#126 = EDGE_CURVE ( 'NONE', #98, #218, #63, .T. ) ;
#127 = VERTEX_POINT ( 'NONE', #108 ) ;
#128 = DIRECTION ( 'NONE',  ( 1.000000000000000000, 0.0000000000000000000, 0.0000000000000000000 ) ) ;
#129 = CARTESIAN_POINT ( 'NONE',  ( 0.0000000000000000000, 0.0000000000000000000, -5.959999999999989300 ) ) ;
#130 =( LENGTH_UNIT ( ) NAMED_UNIT ( * ) SI_UNIT ( $, .METRE. ) );
#131 = FACE_OUTER_BOUND ( 'NONE', #162, .T. ) ;
#132 = ORIENTED_EDGE ( 'NONE', *, *, #86, .T. ) ;
#133 = ORIENTED_EDGE ( 'NONE', *, *, #116, .T. ) ;
#134 =( NAMED_UNIT ( * ) PLANE_ANGLE_UNIT ( ) SI_UNIT ( $, .RADIAN. ) );
#135 = ORIENTED_EDGE ( 'NONE', *, *, #136, .T. ) ;
#136 = EDGE_CURVE ( 'NONE', #30, #127, #158, .T. ) ;
#137 = CLOSED_SHELL ( 'NONE', ( #9, #184, #113, #238, #93, #71, #165, #25 ) ) ;
#138 = CARTESIAN_POINT ( 'NONE',  ( 0.0000000000000000000, 0.0000000000000000000, 6.000000000000000900 ) ) ;
#139 = AXIS2_PLACEMENT_3D ( 'NONE', #19, #157, #39 ) ;
#140 = CONICAL_SURFACE ( 'NONE', #50, 0.5000000000000000000, 0.7853981633974407300 ) ;
#141 = CARTESIAN_POINT ( 'NONE',  ( 0.0000000000000000000, 0.0000000000000000000, 5.960000000000004400 ) ) ;
#142 = CARTESIAN_POINT ( 'NONE',  ( 0.0000000000000000000, 0.0000000000000000000, -6.000000000000000900 ) ) ;
#143 = DIRECTION ( 'NONE',  ( 1.000000000000000000, 0.0000000000000000000, 0.0000000000000000000 ) ) ;
#144 = ORIENTED_EDGE ( 'NONE', *, *, #75, .T. ) ;
#145 =( GEOMETRIC_REPRESENTATION_CONTEXT ( 3 ) GLOBAL_UNCERTAINTY_ASSIGNED_CONTEXT ( ( #243 ) ) GLOBAL_UNIT_ASSIGNED_CONTEXT ( ( #246, #134, #15 ) ) REPRESENTATION_CONTEXT ( 'NONE', 'WORKASPACE' ) );
#146 =( NAMED_UNIT ( * ) PLANE_ANGLE_UNIT ( ) SI_UNIT ( $, .RADIAN. ) );
#147 = CARTESIAN_POINT ( 'NONE',  ( 0.0000000000000000000, 0.0000000000000000000, 0.0000000000000000000 ) ) ;
#148 = EDGE_CURVE ( 'NONE', #231, #127, #153, .T. ) ;
#149 = DIRECTION ( 'NONE',  ( -0.0000000000000000000, -0.0000000000000000000, -1.000000000000000000 ) ) ;
#150 = DIRECTION ( 'NONE',  ( 0.0000000000000000000, 0.0000000000000000000, -1.000000000000000000 ) ) ;
#151 = ORIENTED_EDGE ( 'NONE', *, *, #148, .T. ) ;
#152 = AXIS2_PLACEMENT_3D ( 'NONE', #142, #24, #163 ) ;
#153 = CIRCLE ( 'NONE', #62, 0.5000000000000000000 ) ;
#154 = EDGE_LOOP ( 'NONE', ( #193, #135, #213, #45 ) ) ;
#155 = UNCERTAINTY_MEASURE_WITH_UNIT (LENGTH_MEASURE( 1.000000000000000100E-005 ), #73, 'distance_accuracy_value', 'NONE');
#156 = MECHANICAL_DESIGN_GEOMETRIC_PRESENTATION_REPRESENTATION (  '', ( #185 ), #145 ) ;
#157 = DIRECTION ( 'NONE',  ( -0.0000000000000000000, -0.0000000000000000000, -1.000000000000000000 ) ) ;
#158 = LINE ( 'NONE', #85, #106 ) ;
#159 = EDGE_CURVE ( 'NONE', #65, #231, #51, .T. ) ;
#160 = DIRECTION ( 'NONE',  ( -1.000000000000000000, 0.0000000000000000000, 0.0000000000000000000 ) ) ;
#161 = DIRECTION ( 'NONE',  ( 1.000000000000000000, 0.0000000000000000000, 0.0000000000000000000 ) ) ;
#162 = EDGE_LOOP ( 'NONE', ( #104, #34, #18, #1 ) ) ;
#163 = DIRECTION ( 'NONE',  ( 1.000000000000000000, 0.0000000000000000000, -0.0000000000000000000 ) ) ;
#164 = DIRECTION ( 'NONE',  ( -0.0000000000000000000, -0.0000000000000000000, -1.000000000000000000 ) ) ;
#165 = ADVANCED_FACE ( 'NONE', ( #12 ), #140, .T. ) ;
#166 = FACE_OUTER_BOUND ( 'NONE', #82, .T. ) ;
#167 = AXIS2_PLACEMENT_3D ( 'NONE', #221, #217, #124 ) ;
#168 = ORIENTED_EDGE ( 'NONE', *, *, #172, .T. ) ;
#169 = PRESENTATION_LAYER_ASSIGNMENT (  '', '', ( #185 ) ) ;
#170 = DIRECTION ( 'NONE',  ( 1.000000000000000000, 0.0000000000000000000, 0.0000000000000000000 ) ) ;
#171 = CIRCLE ( 'NONE', #229, 0.5000000000000000000 ) ;
#172 = EDGE_CURVE ( 'NONE', #230, #231, #192, .T. ) ;
#173 = ORIENTED_EDGE ( 'NONE', *, *, #28, .T. ) ;
#174 = DIRECTION ( 'NONE',  ( 0.0000000000000000000, 0.0000000000000000000, 1.000000000000000000 ) ) ;
#175 = VECTOR ( 'NONE', #149, 39.37007874015748100 ) ;
#176 = PRODUCT_DEFINITION_SHAPE ( 'NONE', 'NONE',  #99 ) ;
#177 = EDGE_LOOP ( 'NONE', ( #133, #168, #151, #92 ) ) ;
#178 = DIRECTION ( 'NONE',  ( -0.0000000000000000000, -0.0000000000000000000, -1.000000000000000000 ) ) ;
#179 = CARTESIAN_POINT ( 'NONE',  ( 0.0000000000000000000, 0.0000000000000000000, -5.959999999999989300 ) ) ;
#180 = CARTESIAN_POINT ( 'NONE',  ( -0.4600000000000042900, 0.0000000000000000000, 6.000000000000000900 ) ) ;
#181 = DIRECTION ( 'NONE',  ( 1.000000000000000000, 0.0000000000000000000, 0.0000000000000000000 ) ) ;
#182 = MANIFOLD_SOLID_BREP ( 'Chamfer1', #137 ) ;
#183 = EDGE_LOOP ( 'NONE', ( #76, #53, #189, #22 ) ) ;
#184 = ADVANCED_FACE ( 'NONE', ( #102 ), #208, .T. ) ;
#185 = STYLED_ITEM ( 'NONE', ( #232 ), #199 ) ;
#186 =( LENGTH_UNIT ( ) NAMED_UNIT ( * ) SI_UNIT ( $, .METRE. ) );
#187 = DIMENSIONAL_EXPONENTS ( 1.000000000000000000, 0.0000000000000000000, 0.0000000000000000000, 0.0000000000000000000, 0.0000000000000000000, 0.0000000000000000000, 0.0000000000000000000 ) ;
#188 = CARTESIAN_POINT ( 'NONE',  ( 0.0000000000000000000, 0.0000000000000000000, 6.000000000000000900 ) ) ;
#189 = ORIENTED_EDGE ( 'NONE', *, *, #5, .T. ) ;
#190 = APPLICATION_CONTEXT ( 'automotive_design' ) ;
#191 = AXIS2_PLACEMENT_3D ( 'NONE', #110, #234, #128 ) ;
#192 = LINE ( 'NONE', #47, #40 ) ;
#193 = ORIENTED_EDGE ( 'NONE', *, *, #86, .F. ) ;
#194 = AXIS2_PLACEMENT_3D ( 'NONE', #239, #114, #11 ) ;
#195 = VECTOR ( 'NONE', #90, 39.37007874015748100 ) ;
#196 = CARTESIAN_POINT ( 'NONE',  ( 0.0000000000000000000, 0.0000000000000000000, -5.959999999999989300 ) ) ;
#197 = DIRECTION ( 'NONE',  ( 0.0000000000000000000, 0.0000000000000000000, 1.000000000000000000 ) ) ;
#198 = DIRECTION ( 'NONE',  ( 1.000000000000000000, 0.0000000000000000000, 0.0000000000000000000 ) ) ;
#199 = ADVANCED_BREP_SHAPE_REPRESENTATION ( 'RPSS16-12', ( #182, #111 ), #211 ) ;
#200 = EDGE_LOOP ( 'NONE', ( #117, #244, #84, #123 ) ) ;
#201 = FACE_OUTER_BOUND ( 'NONE', #183, .T. ) ;
#202 = FILL_AREA_STYLE_COLOUR ( '', #241 ) ;
#203 = CARTESIAN_POINT ( 'NONE',  ( 0.5000000000000000000, 6.123233995736764800E-017, 5.960000000000004400 ) ) ;
#204 =( NAMED_UNIT ( * ) PLANE_ANGLE_UNIT ( ) SI_UNIT ( $, .RADIAN. ) );
#205 = CYLINDRICAL_SURFACE ( 'NONE', #81, 0.5000000000000000000 ) ;
#206 = AXIS2_PLACEMENT_3D ( 'NONE', #179, #67, #198 ) ;
#207 = VERTEX_POINT ( 'NONE', #223 ) ;
#208 = CONICAL_SURFACE ( 'NONE', #233, 0.5000000000000000000, 0.7853981633974407300 ) ;
#209 = CARTESIAN_POINT ( 'NONE',  ( 0.4600000000000042900, 5.633375276077877600E-017, 6.000000000000000900 ) ) ;
#210 = FILL_AREA_STYLE ('',( #220 ) ) ;
#211 =( GEOMETRIC_REPRESENTATION_CONTEXT ( 3 ) GLOBAL_UNCERTAINTY_ASSIGNED_CONTEXT ( ( #155 ) ) GLOBAL_UNIT_ASSIGNED_CONTEXT ( ( #73, #204, #33 ) ) REPRESENTATION_CONTEXT ( 'NONE', 'WORKASPACE' ) );
#212 = LINE ( 'NONE', #180, #115 ) ;
#213 = ORIENTED_EDGE ( 'NONE', *, *, #148, .F. ) ;
#214 = CONICAL_SURFACE ( 'NONE', #216, 0.4600000000000042900, 0.7853981633974407300 ) ;
#215 = LENGTH_MEASURE_WITH_UNIT ( LENGTH_MEASURE( 0.02539999999999999900 ), #120 );
#216 = AXIS2_PLACEMENT_3D ( 'NONE', #242, #97, #118 ) ;
#217 = DIRECTION ( 'NONE',  ( -0.0000000000000000000, -0.0000000000000000000, -1.000000000000000000 ) ) ;
#218 = VERTEX_POINT ( 'NONE', #70 ) ;
#219 = CARTESIAN_POINT ( 'NONE',  ( -0.5000000000000000000, 0.0000000000000000000, 6.000000000000000900 ) ) ;
#220 = FILL_AREA_STYLE_COLOUR ( '', #2 ) ;
#221 = CARTESIAN_POINT ( 'NONE',  ( 0.0000000000000000000, 0.0000000000000000000, -6.000000000000000900 ) ) ;
#222 = FILL_AREA_STYLE ('',( #202 ) ) ;
#223 = CARTESIAN_POINT ( 'NONE',  ( -0.5000000000000000000, 0.0000000000000000000, 5.960000000000004400 ) ) ;
#224 = LINE ( 'NONE', #209, #72 ) ;
#225 = DIMENSIONAL_EXPONENTS ( 1.000000000000000000, 0.0000000000000000000, 0.0000000000000000000, 0.0000000000000000000, 0.0000000000000000000, 0.0000000000000000000, 0.0000000000000000000 ) ;
#226 = ORIENTED_EDGE ( 'NONE', *, *, #116, .F. ) ;
#227 = SURFACE_STYLE_USAGE ( .BOTH. , #101 ) ;
#228 = LINE ( 'NONE', #219, #175 ) ;
#229 = AXIS2_PLACEMENT_3D ( 'NONE', #14, #150, #32 ) ;
#230 = VERTEX_POINT ( 'NONE', #203 ) ;
#231 = VERTEX_POINT ( 'NONE', #94 ) ;
#232 = PRESENTATION_STYLE_ASSIGNMENT (( #227 ) ) ;
#233 = AXIS2_PLACEMENT_3D ( 'NONE', #48, #91, #181 ) ;
#234 = DIRECTION ( 'NONE',  ( 0.0000000000000000000, 0.0000000000000000000, 1.000000000000000000 ) ) ;
#235 = CARTESIAN_POINT ( 'NONE',  ( 0.5000000000000000000, 0.0000000000000000000, -5.959999999999989300 ) ) ;
#236 = ORIENTED_EDGE ( 'NONE', *, *, #126, .F. ) ;
#237 = SURFACE_STYLE_USAGE ( .BOTH. , #112 ) ;
#238 = ADVANCED_FACE ( 'NONE', ( #201 ), #245, .T. ) ;
#239 = CARTESIAN_POINT ( 'NONE',  ( 0.0000000000000000000, 0.0000000000000000000, 6.000000000000000900 ) ) ;
#240 = AXIS2_PLACEMENT_3D ( 'NONE', #188, #31, #52 ) ;
#241 = COLOUR_RGB ( '',0.7921568627450980000, 0.8196078431372548800, 0.9333333333333333500 ) ;
#242 = CARTESIAN_POINT ( 'NONE',  ( 0.0000000000000000000, 0.0000000000000000000, 6.000000000000000900 ) ) ;
#243 = UNCERTAINTY_MEASURE_WITH_UNIT (LENGTH_MEASURE( 1.000000000000000100E-005 ), #246, 'distance_accuracy_value', 'NONE');
#244 = ORIENTED_EDGE ( 'NONE', *, *, #75, .F. ) ;
#245 = CYLINDRICAL_SURFACE ( 'NONE', #194, 0.5000000000000000000 ) ;
#246 =( CONVERSION_BASED_UNIT ( 'INCH', #215 ) LENGTH_UNIT ( ) NAMED_UNIT ( #187 ) );
#247 =( GEOMETRIC_REPRESENTATION_CONTEXT ( 3 ) GLOBAL_UNCERTAINTY_ASSIGNED_CONTEXT ( ( #119 ) ) GLOBAL_UNIT_ASSIGNED_CONTEXT ( ( #8, #146, #26 ) ) REPRESENTATION_CONTEXT ( 'NONE', 'WORKASPACE' ) );
#248 = PRODUCT ( 'RPSS16-12', 'RPSS16-12', '', ( #57 ) ) ;
#249 = SURFACE_STYLE_FILL_AREA ( #222 ) ;
ENDSEC;
END-ISO-10303-21;
