ISO-10303-21;
HEADER;
FILE_DESCRIPTION (( 'STEP AP214' ),
    '1' );
FILE_NAME ('RPSS16-18.step',
    '2017-08-09T17:48:30',
    ( '' ),
    ( '' ),
    'SwSTEP 2.0',
    'SolidWorks 2017',
    '' );
FILE_SCHEMA (( 'AUTOMOTIVE_DESIGN' ));
ENDSEC;

DATA;
#1 = VECTOR ( 'NONE', #8, 39.37007874015748900 ) ;
#2 = CARTESIAN_POINT ( 'NONE',  ( 0.0000000000000000000, 0.0000000000000000000, 9.000000000000000000 ) ) ;
#3 = ORIENTED_EDGE ( 'NONE', *, *, #93, .T. ) ;
#4 = DIRECTION ( 'NONE',  ( 0.0000000000000000000, 0.0000000000000000000, 1.000000000000000000 ) ) ;
#5 = CIRCLE ( 'NONE', #226, 0.4599999999999945200 ) ;
#6 = DIRECTION ( 'NONE',  ( -0.0000000000000000000, -0.0000000000000000000, -1.000000000000000000 ) ) ;
#7 = PRODUCT_DEFINITION ( 'UNKNOWN', '', #19, #201 ) ;
#8 = DIRECTION ( 'NONE',  ( 0.7071067811865511300, 8.659560562354976000E-017, -0.7071067811865438000 ) ) ;
#9 = DIRECTION ( 'NONE',  ( -1.000000000000000000, 0.0000000000000000000, 0.0000000000000000000 ) ) ;
#10 = LENGTH_MEASURE_WITH_UNIT ( LENGTH_MEASURE( 0.02539999999999999900 ), #209 );
#11 = CARTESIAN_POINT ( 'NONE',  ( 0.0000000000000000000, 0.0000000000000000000, 9.000000000000000000 ) ) ;
#12 = AXIS2_PLACEMENT_3D ( 'NONE', #185, #202, #89 ) ;
#13 = FACE_OUTER_BOUND ( 'NONE', #18, .T. ) ;
#14 = DIRECTION ( 'NONE',  ( 1.000000000000000000, 0.0000000000000000000, 0.0000000000000000000 ) ) ;
#15 = ORIENTED_EDGE ( 'NONE', *, *, #63, .F. ) ;
#16 = ORIENTED_EDGE ( 'NONE', *, *, #75, .T. ) ;
#17 = COLOUR_RGB ( '',0.7921568627450980000, 0.8196078431372548800, 0.9333333333333333500 ) ;
#18 = EDGE_LOOP ( 'NONE', ( #71, #114, #130, #79 ) ) ;
#19 = PRODUCT_DEFINITION_FORMATION_WITH_SPECIFIED_SOURCE ( 'ANY', '', #210, .NOT_KNOWN. ) ;
#20 = ORIENTED_EDGE ( 'NONE', *, *, #35, .F. ) ;
#21 = VERTEX_POINT ( 'NONE', #180 ) ;
#22 = DIMENSIONAL_EXPONENTS ( 1.000000000000000000, 0.0000000000000000000, 0.0000000000000000000, 0.0000000000000000000, 0.0000000000000000000, 0.0000000000000000000, 0.0000000000000000000 ) ;
#23 = DIRECTION ( 'NONE',  ( -0.0000000000000000000, -0.0000000000000000000, -1.000000000000000000 ) ) ;
#24 = EDGE_CURVE ( 'NONE', #98, #129, #38, .T. ) ;
#25 = CARTESIAN_POINT ( 'NONE',  ( 0.0000000000000000000, 0.0000000000000000000, 8.960000000000004400 ) ) ;
#26 = CARTESIAN_POINT ( 'NONE',  ( 0.0000000000000000000, 0.0000000000000000000, 9.000000000000000000 ) ) ;
#27 = CONICAL_SURFACE ( 'NONE', #249, 0.5000000000000000000, 0.7853981633974261900 ) ;
#28 = STYLED_ITEM ( 'NONE', ( #178 ), #225 ) ;
#29 = CARTESIAN_POINT ( 'NONE',  ( 0.0000000000000000000, 0.0000000000000000000, -8.959999999999993700 ) ) ;
#30 = PRODUCT_DEFINITION_SHAPE ( 'NONE', 'NONE',  #7 ) ;
#31 = ORIENTED_EDGE ( 'NONE', *, *, #93, .F. ) ;
#32 = DIRECTION ( 'NONE',  ( 0.0000000000000000000, 0.0000000000000000000, -1.000000000000000000 ) ) ;
#33 = ORIENTED_EDGE ( 'NONE', *, *, #63, .T. ) ;
#34 = PLANE ( 'NONE',  #147 ) ;
#35 = EDGE_CURVE ( 'NONE', #129, #83, #186, .T. ) ;
#36 = ORIENTED_EDGE ( 'NONE', *, *, #52, .F. ) ;
#37 = PRODUCT_RELATED_PRODUCT_CATEGORY ( 'part', '', ( #210 ) ) ;
#38 = LINE ( 'NONE', #141, #88 ) ;
#39 = APPLICATION_CONTEXT ( 'automotive_design' ) ;
#40 = EDGE_CURVE ( 'NONE', #98, #91, #138, .T. ) ;
#41 = AXIS2_PLACEMENT_3D ( 'NONE', #128, #220, #239 ) ;
#42 = VECTOR ( 'NONE', #43, 39.37007874015748100 ) ;
#43 = DIRECTION ( 'NONE',  ( -0.7071067811865319200, 8.659560562354741800E-017, 0.7071067811865632300 ) ) ;
#44 = EDGE_CURVE ( 'NONE', #62, #83, #232, .T. ) ;
#45 = DIRECTION ( 'NONE',  ( 1.000000000000000000, 0.0000000000000000000, 0.0000000000000000000 ) ) ;
#46 = UNCERTAINTY_MEASURE_WITH_UNIT (LENGTH_MEASURE( 1.000000000000000100E-005 ), #92, 'distance_accuracy_value', 'NONE');
#47 = DIRECTION ( 'NONE',  ( 1.000000000000000000, 0.0000000000000000000, 0.0000000000000000000 ) ) ;
#48 = CARTESIAN_POINT ( 'NONE',  ( 0.4600000000000033000, 5.633375276077865300E-017, 9.000000000000000000 ) ) ;
#49 = LINE ( 'NONE', #236, #99 ) ;
#50 = CARTESIAN_POINT ( 'NONE',  ( 0.5000000000000000000, 0.0000000000000000000, -8.959999999999993700 ) ) ;
#51 = FILL_AREA_STYLE ('',( #107 ) ) ;
#52 = EDGE_CURVE ( 'NONE', #83, #129, #191, .T. ) ;
#53 = DIRECTION ( 'NONE',  ( 0.0000000000000000000, 0.0000000000000000000, 1.000000000000000000 ) ) ;
#54 = AXIS2_PLACEMENT_3D ( 'NONE', #151, #70, #9 ) ;
#55 = FACE_OUTER_BOUND ( 'NONE', #78, .T. ) ;
#56 = FILL_AREA_STYLE ('',( #74 ) ) ;
#57 = PRESENTATION_STYLE_ASSIGNMENT (( #77 ) ) ;
#58 = EDGE_CURVE ( 'NONE', #167, #214, #95, .T. ) ;
#59 = COLOUR_RGB ( '',0.7921568627450980000, 0.8196078431372548800, 0.9333333333333333500 ) ;
#60 = CONICAL_SURFACE ( 'NONE', #212, 0.5000000000000000000, 0.7853981633974261900 ) ;
#61 = ADVANCED_FACE ( 'NONE', ( #238 ), #199, .T. ) ;
#62 = VERTEX_POINT ( 'NONE', #64 ) ;
#63 = EDGE_CURVE ( 'NONE', #214, #167, #149, .T. ) ;
#64 = CARTESIAN_POINT ( 'NONE',  ( -0.4599999999999945200, 5.878304635907262700E-017, -9.000000000000000000 ) ) ;
#65 = ORIENTED_EDGE ( 'NONE', *, *, #35, .T. ) ;
#66 = PRESENTATION_LAYER_ASSIGNMENT (  '', '', ( #28 ) ) ;
#67 = PLANE ( 'NONE',  #12 ) ;
#68 = CARTESIAN_POINT ( 'NONE',  ( 0.5000000000000000000, 6.123233995736766000E-017, -8.959999999999993700 ) ) ;
#69 = EDGE_CURVE ( 'NONE', #91, #83, #49, .T. ) ;
#70 = DIRECTION ( 'NONE',  ( -0.0000000000000000000, -0.0000000000000000000, -1.000000000000000000 ) ) ;
#71 = ORIENTED_EDGE ( 'NONE', *, *, #24, .F. ) ;
#72 = EDGE_LOOP ( 'NONE', ( #241, #221 ) ) ;
#73 = SURFACE_STYLE_USAGE ( .BOTH. , #188 ) ;
#74 = FILL_AREA_STYLE_COLOUR ( '', #59 ) ;
#75 = EDGE_CURVE ( 'NONE', #91, #98, #194, .T. ) ;
#76 = CYLINDRICAL_SURFACE ( 'NONE', #54, 0.5000000000000000000 ) ;
#77 = SURFACE_STYLE_USAGE ( .BOTH. , #192 ) ;
#78 = EDGE_LOOP ( 'NONE', ( #211, #136, #20, #175 ) ) ;
#79 = ORIENTED_EDGE ( 'NONE', *, *, #52, .T. ) ;
#80 = EDGE_CURVE ( 'NONE', #21, #62, #154, .T. ) ;
#81 = MECHANICAL_DESIGN_GEOMETRIC_PRESENTATION_REPRESENTATION (  '', ( #28 ), #94 ) ;
#82 = ORIENTED_EDGE ( 'NONE', *, *, #58, .T. ) ;
#83 = VERTEX_POINT ( 'NONE', #183 ) ;
#84 = ADVANCED_FACE ( 'NONE', ( #55 ), #60, .T. ) ;
#85 = EDGE_CURVE ( 'NONE', #62, #21, #5, .T. ) ;
#86 = DIRECTION ( 'NONE',  ( 0.0000000000000000000, 0.0000000000000000000, -1.000000000000000000 ) ) ;
#87 = DIRECTION ( 'NONE',  ( -0.7071067811865511300, 0.0000000000000000000, -0.7071067811865438000 ) ) ;
#88 = VECTOR ( 'NONE', #23, 39.37007874015748100 ) ;
#89 = DIRECTION ( 'NONE',  ( 1.000000000000000000, 0.0000000000000000000, -0.0000000000000000000 ) ) ;
#90 = CARTESIAN_POINT ( 'NONE',  ( 0.0000000000000000000, 0.0000000000000000000, -8.959999999999993700 ) ) ;
#91 = VERTEX_POINT ( 'NONE', #200 ) ;
#92 =( CONVERSION_BASED_UNIT ( 'INCH', #182 ) LENGTH_UNIT ( ) NAMED_UNIT ( #195 ) );
#93 = EDGE_CURVE ( 'NONE', #167, #98, #158, .T. ) ;
#94 =( GEOMETRIC_REPRESENTATION_CONTEXT ( 3 ) GLOBAL_UNCERTAINTY_ASSIGNED_CONTEXT ( ( #46 ) ) GLOBAL_UNIT_ASSIGNED_CONTEXT ( ( #92, #224, #109 ) ) REPRESENTATION_CONTEXT ( 'NONE', 'WORKASPACE' ) );
#95 = CIRCLE ( 'NONE', #153, 0.4600000000000033000 ) ;
#96 =( CONVERSION_BASED_UNIT ( 'INCH', #10 ) LENGTH_UNIT ( ) NAMED_UNIT ( #145 ) );
#97 = EDGE_CURVE ( 'NONE', #214, #91, #244, .T. ) ;
#98 = VERTEX_POINT ( 'NONE', #166 ) ;
#99 = VECTOR ( 'NONE', #197, 39.37007874015748100 ) ;
#100 = LENGTH_MEASURE_WITH_UNIT ( LENGTH_MEASURE( 0.02539999999999999900 ), #170 );
#101 = CARTESIAN_POINT ( 'NONE',  ( 0.0000000000000000000, 0.0000000000000000000, -8.959999999999993700 ) ) ;
#102 = CARTESIAN_POINT ( 'NONE',  ( 0.0000000000000000000, 0.0000000000000000000, -8.959999999999993700 ) ) ;
#103 = AXIS2_PLACEMENT_3D ( 'NONE', #11, #32, #131 ) ;
#104 = DIRECTION ( 'NONE',  ( 1.000000000000000000, 0.0000000000000000000, 0.0000000000000000000 ) ) ;
#105 = VECTOR ( 'NONE', #87, 39.37007874015748900 ) ;
#106 = DIRECTION ( 'NONE',  ( -0.0000000000000000000, -0.0000000000000000000, -1.000000000000000000 ) ) ;
#107 = FILL_AREA_STYLE_COLOUR ( '', #17 ) ;
#108 = CARTESIAN_POINT ( 'NONE',  ( -0.4600000000000033000, 0.0000000000000000000, 9.000000000000000000 ) ) ;
#109 =( NAMED_UNIT ( * ) SI_UNIT ( $, .STERADIAN. ) SOLID_ANGLE_UNIT ( ) );
#110 = AXIS2_PLACEMENT_3D ( 'NONE', #101, #234, #122 ) ;
#111 = VECTOR ( 'NONE', #187, 39.37007874015748100 ) ;
#112 =( CONVERSION_BASED_UNIT ( 'INCH', #100 ) LENGTH_UNIT ( ) NAMED_UNIT ( #22 ) );
#113 =( NAMED_UNIT ( * ) SI_UNIT ( $, .STERADIAN. ) SOLID_ANGLE_UNIT ( ) );
#114 = ORIENTED_EDGE ( 'NONE', *, *, #40, .T. ) ;
#115 = SURFACE_STYLE_FILL_AREA ( #56 ) ;
#116 = EDGE_LOOP ( 'NONE', ( #179, #3, #169, #223 ) ) ;
#117 = UNCERTAINTY_MEASURE_WITH_UNIT (LENGTH_MEASURE( 1.000000000000000100E-005 ), #96, 'distance_accuracy_value', 'NONE');
#118 = CYLINDRICAL_SURFACE ( 'NONE', #41, 0.5000000000000000000 ) ;
#119 = ORIENTED_EDGE ( 'NONE', *, *, #44, .F. ) ;
#120 = EDGE_LOOP ( 'NONE', ( #16, #245, #65, #134 ) ) ;
#121 = ADVANCED_FACE ( 'NONE', ( #165 ), #67, .F. ) ;
#122 = DIRECTION ( 'NONE',  ( 1.000000000000000000, 0.0000000000000000000, 0.0000000000000000000 ) ) ;
#123 = CLOSED_SHELL ( 'NONE', ( #61, #84, #159, #139, #233, #121, #215, #231 ) ) ;
#124 = AXIS2_PLACEMENT_3D ( 'NONE', #25, #161, #45 ) ;
#125 = DIRECTION ( 'NONE',  ( 1.000000000000000000, 0.0000000000000000000, 0.0000000000000000000 ) ) ;
#126 = CARTESIAN_POINT ( 'NONE',  ( 0.0000000000000000000, 0.0000000000000000000, 9.000000000000000000 ) ) ;
#127 = CARTESIAN_POINT ( 'NONE',  ( 0.0000000000000000000, 0.0000000000000000000, -9.000000000000000000 ) ) ;
#128 = CARTESIAN_POINT ( 'NONE',  ( 0.0000000000000000000, 0.0000000000000000000, 9.000000000000000000 ) ) ;
#129 = VERTEX_POINT ( 'NONE', #68 ) ;
#130 = ORIENTED_EDGE ( 'NONE', *, *, #69, .T. ) ;
#131 = DIRECTION ( 'NONE',  ( -1.000000000000000000, 0.0000000000000000000, 0.0000000000000000000 ) ) ;
#132 =( GEOMETRIC_REPRESENTATION_CONTEXT ( 3 ) GLOBAL_UNCERTAINTY_ASSIGNED_CONTEXT ( ( #248 ) ) GLOBAL_UNIT_ASSIGNED_CONTEXT ( ( #112, #246, #133 ) ) REPRESENTATION_CONTEXT ( 'NONE', 'WORKASPACE' ) );
#133 =( NAMED_UNIT ( * ) SI_UNIT ( $, .STERADIAN. ) SOLID_ANGLE_UNIT ( ) );
#134 = ORIENTED_EDGE ( 'NONE', *, *, #69, .F. ) ;
#135 = DIRECTION ( 'NONE',  ( 0.0000000000000000000, 0.0000000000000000000, 1.000000000000000000 ) ) ;
#136 = ORIENTED_EDGE ( 'NONE', *, *, #44, .T. ) ;
#137 = AXIS2_PLACEMENT_3D ( 'NONE', #102, #235, #125 ) ;
#138 = CIRCLE ( 'NONE', #124, 0.5000000000000000000 ) ;
#139 = ADVANCED_FACE ( 'NONE', ( #13 ), #118, .T. ) ;
#140 = EDGE_LOOP ( 'NONE', ( #33, #82 ) ) ;
#141 = CARTESIAN_POINT ( 'NONE',  ( 0.5000000000000000000, 6.123233995736766000E-017, 9.000000000000000000 ) ) ;
#142 = CARTESIAN_POINT ( 'NONE',  ( -0.5000000000000000000, 6.123233995736766000E-017, -8.959999999999993700 ) ) ;
#143 = FACE_OUTER_BOUND ( 'NONE', #229, .T. ) ;
#144 = DIRECTION ( 'NONE',  ( -1.000000000000000000, 0.0000000000000000000, 0.0000000000000000000 ) ) ;
#145 = DIMENSIONAL_EXPONENTS ( 1.000000000000000000, 0.0000000000000000000, 0.0000000000000000000, 0.0000000000000000000, 0.0000000000000000000, 0.0000000000000000000, 0.0000000000000000000 ) ;
#146 = DIRECTION ( 'NONE',  ( 1.000000000000000000, 0.0000000000000000000, 0.0000000000000000000 ) ) ;
#147 = AXIS2_PLACEMENT_3D ( 'NONE', #168, #53, #189 ) ;
#148 = DIRECTION ( 'NONE',  ( 1.000000000000000000, 0.0000000000000000000, 0.0000000000000000000 ) ) ;
#149 = CIRCLE ( 'NONE', #177, 0.4600000000000033000 ) ;
#150 = CARTESIAN_POINT ( 'NONE',  ( -0.4600000000000033000, 0.0000000000000000000, 9.000000000000000000 ) ) ;
#151 = CARTESIAN_POINT ( 'NONE',  ( 0.0000000000000000000, 0.0000000000000000000, 9.000000000000000000 ) ) ;
#152 = EDGE_LOOP ( 'NONE', ( #119, #176, #230, #36 ) ) ;
#153 = AXIS2_PLACEMENT_3D ( 'NONE', #26, #163, #47 ) ;
#154 = CIRCLE ( 'NONE', #196, 0.4599999999999945200 ) ;
#155 = EDGE_CURVE ( 'NONE', #21, #129, #207, .T. ) ;
#156 = APPLICATION_PROTOCOL_DEFINITION ( 'draft international standard', 'automotive_design', 1998, #173 ) ;
#157 = PRODUCT_CONTEXT ( 'NONE', #173, 'mechanical' ) ;
#158 = LINE ( 'NONE', #48, #1 ) ;
#159 = ADVANCED_FACE ( 'NONE', ( #213 ), #76, .T. ) ;
#160 = ORIENTED_EDGE ( 'NONE', *, *, #40, .F. ) ;
#161 = DIRECTION ( 'NONE',  ( 0.0000000000000000000, 0.0000000000000000000, -1.000000000000000000 ) ) ;
#162 = AXIS2_PLACEMENT_3D ( 'NONE', #2, #217, #144 ) ;
#163 = DIRECTION ( 'NONE',  ( 0.0000000000000000000, 0.0000000000000000000, 1.000000000000000000 ) ) ;
#164 = DIRECTION ( 'NONE',  ( -0.0000000000000000000, -0.0000000000000000000, 1.000000000000000000 ) ) ;
#165 = FACE_OUTER_BOUND ( 'NONE', #72, .T. ) ;
#166 = CARTESIAN_POINT ( 'NONE',  ( 0.5000000000000000000, 6.123233995736766000E-017, 8.960000000000004400 ) ) ;
#167 = VERTEX_POINT ( 'NONE', #222 ) ;
#168 = CARTESIAN_POINT ( 'NONE',  ( 0.0000000000000000000, 0.0000000000000000000, 9.000000000000000000 ) ) ;
#169 = ORIENTED_EDGE ( 'NONE', *, *, #75, .F. ) ;
#170 =( LENGTH_UNIT ( ) NAMED_UNIT ( * ) SI_UNIT ( $, .METRE. ) );
#171 = FACE_OUTER_BOUND ( 'NONE', #152, .T. ) ;
#172 = STYLED_ITEM ( 'NONE', ( #57 ), #206 ) ;
#173 = APPLICATION_CONTEXT ( 'automotive_design' ) ;
#174 = APPLICATION_PROTOCOL_DEFINITION ( 'draft international standard', 'automotive_design', 1998, #39 ) ;
#175 = ORIENTED_EDGE ( 'NONE', *, *, #155, .F. ) ;
#176 = ORIENTED_EDGE ( 'NONE', *, *, #80, .F. ) ;
#177 = AXIS2_PLACEMENT_3D ( 'NONE', #126, #4, #146 ) ;
#178 = PRESENTATION_STYLE_ASSIGNMENT (( #73 ) ) ;
#179 = ORIENTED_EDGE ( 'NONE', *, *, #58, .F. ) ;
#180 = CARTESIAN_POINT ( 'NONE',  ( 0.4599999999999945200, 0.0000000000000000000, -9.000000000000000000 ) ) ;
#181 = SHAPE_DEFINITION_REPRESENTATION ( #30, #206 ) ;
#182 = LENGTH_MEASURE_WITH_UNIT ( LENGTH_MEASURE( 0.02539999999999999900 ), #204 );
#183 = CARTESIAN_POINT ( 'NONE',  ( -0.5000000000000000000, 0.0000000000000000000, -8.959999999999993700 ) ) ;
#184 = PRESENTATION_LAYER_ASSIGNMENT (  '', '', ( #172 ) ) ;
#185 = CARTESIAN_POINT ( 'NONE',  ( 0.0000000000000000000, 0.0000000000000000000, -9.000000000000000000 ) ) ;
#186 = CIRCLE ( 'NONE', #110, 0.5000000000000000000 ) ;
#187 = DIRECTION ( 'NONE',  ( 0.7071067811865319200, 0.0000000000000000000, 0.7071067811865632300 ) ) ;
#188 = SURFACE_SIDE_STYLE ('',( #227 ) ) ;
#189 = DIRECTION ( 'NONE',  ( 1.000000000000000000, 0.0000000000000000000, -0.0000000000000000000 ) ) ;
#190 = AXIS2_PLACEMENT_3D ( 'NONE', #198, #86, #218 ) ;
#191 = CIRCLE ( 'NONE', #137, 0.5000000000000000000 ) ;
#192 = SURFACE_SIDE_STYLE ('',( #115 ) ) ;
#193 = MECHANICAL_DESIGN_GEOMETRIC_PRESENTATION_REPRESENTATION (  '', ( #172 ), #208 ) ;
#194 = CIRCLE ( 'NONE', #190, 0.5000000000000000000 ) ;
#195 = DIMENSIONAL_EXPONENTS ( 1.000000000000000000, 0.0000000000000000000, 0.0000000000000000000, 0.0000000000000000000, 0.0000000000000000000, 0.0000000000000000000, 0.0000000000000000000 ) ;
#196 = AXIS2_PLACEMENT_3D ( 'NONE', #127, #6, #148 ) ;
#197 = DIRECTION ( 'NONE',  ( -0.0000000000000000000, -0.0000000000000000000, -1.000000000000000000 ) ) ;
#198 = CARTESIAN_POINT ( 'NONE',  ( 0.0000000000000000000, 0.0000000000000000000, 8.960000000000004400 ) ) ;
#199 = CONICAL_SURFACE ( 'NONE', #162, 0.4600000000000033000, 0.7853981633974533900 ) ;
#200 = CARTESIAN_POINT ( 'NONE',  ( -0.5000000000000000000, 0.0000000000000000000, 8.960000000000004400 ) ) ;
#201 = PRODUCT_DEFINITION_CONTEXT ( 'detailed design', #39, 'design' ) ;
#202 = DIRECTION ( 'NONE',  ( 0.0000000000000000000, 0.0000000000000000000, 1.000000000000000000 ) ) ;
#203 = DIRECTION ( 'NONE',  ( 1.000000000000000000, 0.0000000000000000000, 0.0000000000000000000 ) ) ;
#204 =( LENGTH_UNIT ( ) NAMED_UNIT ( * ) SI_UNIT ( $, .METRE. ) );
#205 = CARTESIAN_POINT ( 'NONE',  ( 0.0000000000000000000, 0.0000000000000000000, 0.0000000000000000000 ) ) ;
#206 = ADVANCED_BREP_SHAPE_REPRESENTATION ( 'RPSS16-18', ( #225, #243 ), #132 ) ;
#207 = LINE ( 'NONE', #50, #111 ) ;
#208 =( GEOMETRIC_REPRESENTATION_CONTEXT ( 3 ) GLOBAL_UNCERTAINTY_ASSIGNED_CONTEXT ( ( #117 ) ) GLOBAL_UNIT_ASSIGNED_CONTEXT ( ( #96, #228, #113 ) ) REPRESENTATION_CONTEXT ( 'NONE', 'WORKASPACE' ) );
#209 =( LENGTH_UNIT ( ) NAMED_UNIT ( * ) SI_UNIT ( $, .METRE. ) );
#210 = PRODUCT ( 'RPSS16-18', 'RPSS16-18', '', ( #157 ) ) ;
#211 = ORIENTED_EDGE ( 'NONE', *, *, #85, .F. ) ;
#212 = AXIS2_PLACEMENT_3D ( 'NONE', #29, #164, #104 ) ;
#213 = FACE_OUTER_BOUND ( 'NONE', #120, .T. ) ;
#214 = VERTEX_POINT ( 'NONE', #108 ) ;
#215 = ADVANCED_FACE ( 'NONE', ( #171 ), #27, .T. ) ;
#216 = ORIENTED_EDGE ( 'NONE', *, *, #97, .T. ) ;
#217 = DIRECTION ( 'NONE',  ( 0.0000000000000000000, 0.0000000000000000000, -1.000000000000000000 ) ) ;
#218 = DIRECTION ( 'NONE',  ( 1.000000000000000000, 0.0000000000000000000, 0.0000000000000000000 ) ) ;
#219 = CARTESIAN_POINT ( 'NONE',  ( 0.0000000000000000000, 0.0000000000000000000, -9.000000000000000000 ) ) ;
#220 = DIRECTION ( 'NONE',  ( -0.0000000000000000000, -0.0000000000000000000, -1.000000000000000000 ) ) ;
#221 = ORIENTED_EDGE ( 'NONE', *, *, #85, .T. ) ;
#222 = CARTESIAN_POINT ( 'NONE',  ( 0.4600000000000033000, 5.878304635907315700E-017, 9.000000000000000000 ) ) ;
#223 = ORIENTED_EDGE ( 'NONE', *, *, #97, .F. ) ;
#224 =( NAMED_UNIT ( * ) PLANE_ANGLE_UNIT ( ) SI_UNIT ( $, .RADIAN. ) );
#225 = MANIFOLD_SOLID_BREP ( 'Chamfer1', #123 ) ;
#226 = AXIS2_PLACEMENT_3D ( 'NONE', #219, #106, #237 ) ;
#227 = SURFACE_STYLE_FILL_AREA ( #51 ) ;
#228 =( NAMED_UNIT ( * ) PLANE_ANGLE_UNIT ( ) SI_UNIT ( $, .RADIAN. ) );
#229 = EDGE_LOOP ( 'NONE', ( #31, #15, #216, #160 ) ) ;
#230 = ORIENTED_EDGE ( 'NONE', *, *, #155, .T. ) ;
#231 = ADVANCED_FACE ( 'NONE', ( #143 ), #247, .T. ) ;
#232 = LINE ( 'NONE', #142, #42 ) ;
#233 = ADVANCED_FACE ( 'NONE', ( #242 ), #34, .T. ) ;
#234 = DIRECTION ( 'NONE',  ( -0.0000000000000000000, -0.0000000000000000000, 1.000000000000000000 ) ) ;
#235 = DIRECTION ( 'NONE',  ( -0.0000000000000000000, -0.0000000000000000000, 1.000000000000000000 ) ) ;
#236 = CARTESIAN_POINT ( 'NONE',  ( -0.5000000000000000000, 0.0000000000000000000, 9.000000000000000000 ) ) ;
#237 = DIRECTION ( 'NONE',  ( 1.000000000000000000, 0.0000000000000000000, 0.0000000000000000000 ) ) ;
#238 = FACE_OUTER_BOUND ( 'NONE', #116, .T. ) ;
#239 = DIRECTION ( 'NONE',  ( -1.000000000000000000, 0.0000000000000000000, 0.0000000000000000000 ) ) ;
#240 = DIRECTION ( 'NONE',  ( -0.0000000000000000000, -0.0000000000000000000, 1.000000000000000000 ) ) ;
#241 = ORIENTED_EDGE ( 'NONE', *, *, #80, .T. ) ;
#242 = FACE_OUTER_BOUND ( 'NONE', #140, .T. ) ;
#243 = AXIS2_PLACEMENT_3D ( 'NONE', #205, #135, #14 ) ;
#244 = LINE ( 'NONE', #150, #105 ) ;
#245 = ORIENTED_EDGE ( 'NONE', *, *, #24, .T. ) ;
#246 =( NAMED_UNIT ( * ) PLANE_ANGLE_UNIT ( ) SI_UNIT ( $, .RADIAN. ) );
#247 = CONICAL_SURFACE ( 'NONE', #103, 0.4600000000000033000, 0.7853981633974533900 ) ;
#248 = UNCERTAINTY_MEASURE_WITH_UNIT (LENGTH_MEASURE( 1.000000000000000100E-005 ), #112, 'distance_accuracy_value', 'NONE');
#249 = AXIS2_PLACEMENT_3D ( 'NONE', #90, #240, #203 ) ;
ENDSEC;
END-ISO-10303-21;
