ISO-10303-21;
HEADER;
FILE_DESCRIPTION (( 'STEP AP214' ),
    '1' );
FILE_NAME ('RPSS16-24.step',
    '2017-08-09T17:48:45',
    ( '' ),
    ( '' ),
    'SwSTEP 2.0',
    'SolidWorks 2017',
    '' );
FILE_SCHEMA (( 'AUTOMOTIVE_DESIGN' ));
ENDSEC;

DATA;
#1 = ADVANCED_FACE ( 'NONE', ( #239 ), #47, .T. ) ;
#2 = CIRCLE ( 'NONE', #231, 0.5000000000000000000 ) ;
#3 = AXIS2_PLACEMENT_3D ( 'NONE', #65, #24, #175 ) ;
#4 = PRESENTATION_STYLE_ASSIGNMENT (( #89 ) ) ;
#5 = EDGE_LOOP ( 'NONE', ( #228, #56, #172, #158 ) ) ;
#6 = CONICAL_SURFACE ( 'NONE', #191, 0.4600000000000097900, 0.7853981633974543900 ) ;
#7 = ADVANCED_FACE ( 'NONE', ( #41 ), #99, .T. ) ;
#8 = CARTESIAN_POINT ( 'NONE',  ( 0.0000000000000000000, 0.0000000000000000000, 12.00000000000000200 ) ) ;
#9 = ORIENTED_EDGE ( 'NONE', *, *, #142, .T. ) ;
#10 = DIRECTION ( 'NONE',  ( 1.000000000000000000, 0.0000000000000000000, 0.0000000000000000000 ) ) ;
#11 = DIRECTION ( 'NONE',  ( -1.000000000000000000, 0.0000000000000000000, 0.0000000000000000000 ) ) ;
#12 = DIRECTION ( 'NONE',  ( 0.0000000000000000000, 0.0000000000000000000, -1.000000000000000000 ) ) ;
#13 = AXIS2_PLACEMENT_3D ( 'NONE', #8, #157, #121 ) ;
#14 = DIRECTION ( 'NONE',  ( 0.0000000000000000000, 0.0000000000000000000, -1.000000000000000000 ) ) ;
#15 =( LENGTH_UNIT ( ) NAMED_UNIT ( * ) SI_UNIT ( $, .METRE. ) );
#16 =( NAMED_UNIT ( * ) PLANE_ANGLE_UNIT ( ) SI_UNIT ( $, .RADIAN. ) );
#17 = VERTEX_POINT ( 'NONE', #139 ) ;
#18 = ADVANCED_FACE ( 'NONE', ( #192 ), #147, .T. ) ;
#19 = VECTOR ( 'NONE', #49, 39.37007874015748900 ) ;
#20 = STYLED_ITEM ( 'NONE', ( #220 ), #136 ) ;
#21 = MANIFOLD_SOLID_BREP ( 'Chamfer1', #40 ) ;
#22 = UNCERTAINTY_MEASURE_WITH_UNIT (LENGTH_MEASURE( 1.000000000000000100E-005 ), #146, 'distance_accuracy_value', 'NONE');
#23 = STYLED_ITEM ( 'NONE', ( #4 ), #21 ) ;
#24 = DIRECTION ( 'NONE',  ( -0.0000000000000000000, -0.0000000000000000000, -1.000000000000000000 ) ) ;
#25 = CIRCLE ( 'NONE', #95, 0.4599999999999835300 ) ;
#26 = DIRECTION ( 'NONE',  ( -0.7071067811865516800, 0.0000000000000000000, -0.7071067811865431300 ) ) ;
#27 = ORIENTED_EDGE ( 'NONE', *, *, #132, .T. ) ;
#28 = LENGTH_MEASURE_WITH_UNIT ( LENGTH_MEASURE( 0.02539999999999999900 ), #247 );
#29 = CARTESIAN_POINT ( 'NONE',  ( 0.0000000000000000000, 0.0000000000000000000, -12.00000000000000200 ) ) ;
#30 = EDGE_CURVE ( 'NONE', #106, #135, #140, .T. ) ;
#31 = CARTESIAN_POINT ( 'NONE',  ( -0.5000000000000000000, 6.123233995736766000E-017, -11.95999999999998300 ) ) ;
#32 = DIRECTION ( 'NONE',  ( -0.0000000000000000000, -0.0000000000000000000, 1.000000000000000000 ) ) ;
#33 = DIRECTION ( 'NONE',  ( 0.0000000000000000000, 0.0000000000000000000, 1.000000000000000000 ) ) ;
#34 = PRESENTATION_LAYER_ASSIGNMENT (  '', '', ( #20 ) ) ;
#35 =( NAMED_UNIT ( * ) PLANE_ANGLE_UNIT ( ) SI_UNIT ( $, .RADIAN. ) );
#36 = ORIENTED_EDGE ( 'NONE', *, *, #85, .F. ) ;
#37 = EDGE_LOOP ( 'NONE', ( #71, #120, #131, #109 ) ) ;
#38 = PRESENTATION_LAYER_ASSIGNMENT (  '', '', ( #23 ) ) ;
#39 = FACE_OUTER_BOUND ( 'NONE', #5, .T. ) ;
#40 = CLOSED_SHELL ( 'NONE', ( #150, #81, #7, #18, #169, #102, #1, #173 ) ) ;
#41 = FACE_OUTER_BOUND ( 'NONE', #161, .T. ) ;
#42 = EDGE_CURVE ( 'NONE', #189, #210, #76, .T. ) ;
#43 = FACE_OUTER_BOUND ( 'NONE', #208, .T. ) ;
#44 = DIMENSIONAL_EXPONENTS ( 1.000000000000000000, 0.0000000000000000000, 0.0000000000000000000, 0.0000000000000000000, 0.0000000000000000000, 0.0000000000000000000, 0.0000000000000000000 ) ;
#45 = MECHANICAL_DESIGN_GEOMETRIC_PRESENTATION_REPRESENTATION (  '', ( #20 ), #60 ) ;
#46 = DIRECTION ( 'NONE',  ( 1.000000000000000000, 0.0000000000000000000, 0.0000000000000000000 ) ) ;
#47 = CONICAL_SURFACE ( 'NONE', #211, 0.5000000000000000000, 0.7853981633974269600 ) ;
#48 = VERTEX_POINT ( 'NONE', #177 ) ;
#49 = DIRECTION ( 'NONE',  ( 0.7071067811865516800, 8.659560562354984600E-017, -0.7071067811865431300 ) ) ;
#50 = DIRECTION ( 'NONE',  ( 1.000000000000000000, 0.0000000000000000000, 0.0000000000000000000 ) ) ;
#51 = CARTESIAN_POINT ( 'NONE',  ( 0.5000000000000000000, 0.0000000000000000000, -11.95999999999998300 ) ) ;
#52 = CARTESIAN_POINT ( 'NONE',  ( 0.0000000000000000000, 0.0000000000000000000, 12.00000000000000200 ) ) ;
#53 = MECHANICAL_DESIGN_GEOMETRIC_PRESENTATION_REPRESENTATION (  '', ( #23 ), #64 ) ;
#54 = CARTESIAN_POINT ( 'NONE',  ( 0.4599999999999835300, 0.0000000000000000000, -12.00000000000000200 ) ) ;
#55 = DIRECTION ( 'NONE',  ( 0.0000000000000000000, 0.0000000000000000000, -1.000000000000000000 ) ) ;
#56 = ORIENTED_EDGE ( 'NONE', *, *, #72, .T. ) ;
#57 = DIRECTION ( 'NONE',  ( 1.000000000000000000, 0.0000000000000000000, 0.0000000000000000000 ) ) ;
#58 = EDGE_CURVE ( 'NONE', #106, #130, #171, .T. ) ;
#59 = ORIENTED_EDGE ( 'NONE', *, *, #170, .T. ) ;
#60 =( GEOMETRIC_REPRESENTATION_CONTEXT ( 3 ) GLOBAL_UNCERTAINTY_ASSIGNED_CONTEXT ( ( #100 ) ) GLOBAL_UNIT_ASSIGNED_CONTEXT ( ( #129, #16, #148 ) ) REPRESENTATION_CONTEXT ( 'NONE', 'WORKASPACE' ) );
#61 = LENGTH_MEASURE_WITH_UNIT ( LENGTH_MEASURE( 0.02539999999999999900 ), #217 );
#62 = ORIENTED_EDGE ( 'NONE', *, *, #118, .T. ) ;
#63 = ORIENTED_EDGE ( 'NONE', *, *, #85, .T. ) ;
#64 =( GEOMETRIC_REPRESENTATION_CONTEXT ( 3 ) GLOBAL_UNCERTAINTY_ASSIGNED_CONTEXT ( ( #69 ) ) GLOBAL_UNIT_ASSIGNED_CONTEXT ( ( #108, #237, #123 ) ) REPRESENTATION_CONTEXT ( 'NONE', 'WORKASPACE' ) );
#65 = CARTESIAN_POINT ( 'NONE',  ( 0.0000000000000000000, 0.0000000000000000000, 12.00000000000000200 ) ) ;
#66 = FILL_AREA_STYLE ('',( #176 ) ) ;
#67 = CARTESIAN_POINT ( 'NONE',  ( 0.0000000000000000000, 0.0000000000000000000, 12.00000000000000200 ) ) ;
#68 = DIRECTION ( 'NONE',  ( -0.0000000000000000000, -0.0000000000000000000, 1.000000000000000000 ) ) ;
#69 = UNCERTAINTY_MEASURE_WITH_UNIT (LENGTH_MEASURE( 1.000000000000000100E-005 ), #108, 'distance_accuracy_value', 'NONE');
#70 = CARTESIAN_POINT ( 'NONE',  ( 0.0000000000000000000, 0.0000000000000000000, -12.00000000000000200 ) ) ;
#71 = ORIENTED_EDGE ( 'NONE', *, *, #72, .F. ) ;
#72 = EDGE_CURVE ( 'NONE', #135, #84, #119, .T. ) ;
#73 = DIRECTION ( 'NONE',  ( 0.0000000000000000000, 0.0000000000000000000, 1.000000000000000000 ) ) ;
#74 = DIRECTION ( 'NONE',  ( -0.0000000000000000000, -0.0000000000000000000, -1.000000000000000000 ) ) ;
#75 = CARTESIAN_POINT ( 'NONE',  ( 0.0000000000000000000, 0.0000000000000000000, 12.00000000000000200 ) ) ;
#76 = CIRCLE ( 'NONE', #234, 0.4599999999999835300 ) ;
#77 = PRODUCT ( 'RPSS16-24', 'RPSS16-24', '', ( #188 ) ) ;
#78 = PRODUCT_DEFINITION_SHAPE ( 'NONE', 'NONE',  #115 ) ;
#79 = APPLICATION_CONTEXT ( 'automotive_design' ) ;
#80 = ORIENTED_EDGE ( 'NONE', *, *, #155, .F. ) ;
#81 = ADVANCED_FACE ( 'NONE', ( #105 ), #87, .T. ) ;
#82 = AXIS2_PLACEMENT_3D ( 'NONE', #178, #68, #46 ) ;
#83 = FACE_OUTER_BOUND ( 'NONE', #153, .T. ) ;
#84 = VERTEX_POINT ( 'NONE', #219 ) ;
#85 = EDGE_CURVE ( 'NONE', #210, #189, #25, .T. ) ;
#86 = DIMENSIONAL_EXPONENTS ( 1.000000000000000000, 0.0000000000000000000, 0.0000000000000000000, 0.0000000000000000000, 0.0000000000000000000, 0.0000000000000000000, 0.0000000000000000000 ) ;
#87 = CONICAL_SURFACE ( 'NONE', #82, 0.5000000000000000000, 0.7853981633974269600 ) ;
#88 = CARTESIAN_POINT ( 'NONE',  ( 0.0000000000000000000, 0.0000000000000000000, -11.95999999999998300 ) ) ;
#89 = SURFACE_STYLE_USAGE ( .BOTH. , #197 ) ;
#90 = DIRECTION ( 'NONE',  ( 1.000000000000000000, 0.0000000000000000000, 0.0000000000000000000 ) ) ;
#91 = ORIENTED_EDGE ( 'NONE', *, *, #118, .F. ) ;
#92 = DIRECTION ( 'NONE',  ( 0.0000000000000000000, 0.0000000000000000000, -1.000000000000000000 ) ) ;
#93 = CARTESIAN_POINT ( 'NONE',  ( 0.5000000000000000000, 6.123233995736764800E-017, 12.00000000000000200 ) ) ;
#94 = LINE ( 'NONE', #51, #137 ) ;
#95 = AXIS2_PLACEMENT_3D ( 'NONE', #29, #160, #50 ) ;
#96 = DIRECTION ( 'NONE',  ( -0.0000000000000000000, -0.0000000000000000000, -1.000000000000000000 ) ) ;
#97 = CARTESIAN_POINT ( 'NONE',  ( 0.0000000000000000000, 0.0000000000000000000, 0.0000000000000000000 ) ) ;
#98 = FILL_AREA_STYLE ('',( #243 ) ) ;
#99 = CYLINDRICAL_SURFACE ( 'NONE', #3, 0.5000000000000000000 ) ;
#100 = UNCERTAINTY_MEASURE_WITH_UNIT (LENGTH_MEASURE( 1.000000000000000100E-005 ), #129, 'distance_accuracy_value', 'NONE');
#101 = EDGE_CURVE ( 'NONE', #130, #84, #174, .T. ) ;
#102 = ADVANCED_FACE ( 'NONE', ( #83 ), #125, .F. ) ;
#103 = LINE ( 'NONE', #93, #242 ) ;
#104 = AXIS2_PLACEMENT_3D ( 'NONE', #97, #167, #57 ) ;
#105 = FACE_OUTER_BOUND ( 'NONE', #212, .T. ) ;
#106 = VERTEX_POINT ( 'NONE', #180 ) ;
#107 = AXIS2_PLACEMENT_3D ( 'NONE', #201, #92, #221 ) ;
#108 =( CONVERSION_BASED_UNIT ( 'INCH', #61 ) LENGTH_UNIT ( ) NAMED_UNIT ( #86 ) );
#109 = ORIENTED_EDGE ( 'NONE', *, *, #182, .F. ) ;
#110 = DIRECTION ( 'NONE',  ( 0.0000000000000000000, 0.0000000000000000000, 1.000000000000000000 ) ) ;
#111 = ORIENTED_EDGE ( 'NONE', *, *, #195, .T. ) ;
#112 = EDGE_CURVE ( 'NONE', #135, #106, #128, .T. ) ;
#113 = CARTESIAN_POINT ( 'NONE',  ( 0.4600000000000097900, 5.878304635907355100E-017, 12.00000000000000200 ) ) ;
#114 = DIRECTION ( 'NONE',  ( -0.0000000000000000000, -0.0000000000000000000, 1.000000000000000000 ) ) ;
#115 = PRODUCT_DEFINITION ( 'UNKNOWN', '', #122, #246 ) ;
#116 = SURFACE_STYLE_USAGE ( .BOTH. , #227 ) ;
#117 = COLOUR_RGB ( '',0.7921568627450980000, 0.8196078431372548800, 0.9333333333333333500 ) ;
#118 = EDGE_CURVE ( 'NONE', #210, #48, #230, .T. ) ;
#119 = LINE ( 'NONE', #159, #19 ) ;
#120 = ORIENTED_EDGE ( 'NONE', *, *, #30, .F. ) ;
#121 = DIRECTION ( 'NONE',  ( -1.000000000000000000, 0.0000000000000000000, 0.0000000000000000000 ) ) ;
#122 = PRODUCT_DEFINITION_FORMATION_WITH_SPECIFIED_SOURCE ( 'ANY', '', #77, .NOT_KNOWN. ) ;
#123 =( NAMED_UNIT ( * ) SI_UNIT ( $, .STERADIAN. ) SOLID_ANGLE_UNIT ( ) );
#124 = DIRECTION ( 'NONE',  ( -0.0000000000000000000, -0.0000000000000000000, -1.000000000000000000 ) ) ;
#125 = PLANE ( 'NONE',  #138 ) ;
#126 = ORIENTED_EDGE ( 'NONE', *, *, #42, .T. ) ;
#127 = AXIS2_PLACEMENT_3D ( 'NONE', #181, #73, #202 ) ;
#128 = CIRCLE ( 'NONE', #127, 0.4600000000000097900 ) ;
#129 =( CONVERSION_BASED_UNIT ( 'INCH', #28 ) LENGTH_UNIT ( ) NAMED_UNIT ( #44 ) );
#130 = VERTEX_POINT ( 'NONE', #222 ) ;
#131 = ORIENTED_EDGE ( 'NONE', *, *, #58, .T. ) ;
#132 = EDGE_CURVE ( 'NONE', #17, #48, #133, .T. ) ;
#133 = CIRCLE ( 'NONE', #151, 0.5000000000000000000 ) ;
#134 = PRODUCT_RELATED_PRODUCT_CATEGORY ( 'part', '', ( #77 ) ) ;
#135 = VERTEX_POINT ( 'NONE', #113 ) ;
#136 = ADVANCED_BREP_SHAPE_REPRESENTATION ( 'RPSS16-24', ( #21, #104 ), #244 ) ;
#137 = VECTOR ( 'NONE', #183, 39.37007874015748900 ) ;
#138 = AXIS2_PLACEMENT_3D ( 'NONE', #70, #110, #241 ) ;
#139 = CARTESIAN_POINT ( 'NONE',  ( 0.5000000000000000000, 6.123233995736764800E-017, -11.95999999999998300 ) ) ;
#140 = CIRCLE ( 'NONE', #223, 0.4600000000000097900 ) ;
#141 = DIRECTION ( 'NONE',  ( -0.7071067811865322500, 8.659560562354748000E-017, 0.7071067811865625600 ) ) ;
#142 = EDGE_CURVE ( 'NONE', #189, #17, #94, .T. ) ;
#143 = CARTESIAN_POINT ( 'NONE',  ( 0.0000000000000000000, 0.0000000000000000000, -11.95999999999998300 ) ) ;
#144 = CONICAL_SURFACE ( 'NONE', #164, 0.4600000000000097900, 0.7853981633974543900 ) ;
#145 = PLANE ( 'NONE',  #205 ) ;
#146 =( CONVERSION_BASED_UNIT ( 'INCH', #154 ) LENGTH_UNIT ( ) NAMED_UNIT ( #156 ) );
#147 = CYLINDRICAL_SURFACE ( 'NONE', #13, 0.5000000000000000000 ) ;
#148 =( NAMED_UNIT ( * ) SI_UNIT ( $, .STERADIAN. ) SOLID_ANGLE_UNIT ( ) );
#149 = ORIENTED_EDGE ( 'NONE', *, *, #195, .F. ) ;
#150 = ADVANCED_FACE ( 'NONE', ( #39 ), #144, .T. ) ;
#151 = AXIS2_PLACEMENT_3D ( 'NONE', #143, #32, #162 ) ;
#152 = ORIENTED_EDGE ( 'NONE', *, *, #30, .T. ) ;
#153 = EDGE_LOOP ( 'NONE', ( #126, #63 ) ) ;
#154 = LENGTH_MEASURE_WITH_UNIT ( LENGTH_MEASURE( 0.02539999999999999900 ), #15 );
#155 = EDGE_CURVE ( 'NONE', #84, #17, #103, .T. ) ;
#156 = DIMENSIONAL_EXPONENTS ( 1.000000000000000000, 0.0000000000000000000, 0.0000000000000000000, 0.0000000000000000000, 0.0000000000000000000, 0.0000000000000000000, 0.0000000000000000000 ) ;
#157 = DIRECTION ( 'NONE',  ( -0.0000000000000000000, -0.0000000000000000000, -1.000000000000000000 ) ) ;
#158 = ORIENTED_EDGE ( 'NONE', *, *, #58, .F. ) ;
#159 = CARTESIAN_POINT ( 'NONE',  ( 0.4600000000000097900, 5.633375276077945400E-017, 12.00000000000000200 ) ) ;
#160 = DIRECTION ( 'NONE',  ( -0.0000000000000000000, -0.0000000000000000000, -1.000000000000000000 ) ) ;
#161 = EDGE_LOOP ( 'NONE', ( #194, #179, #27, #193 ) ) ;
#162 = DIRECTION ( 'NONE',  ( 1.000000000000000000, 0.0000000000000000000, 0.0000000000000000000 ) ) ;
#163 = DIRECTION ( 'NONE',  ( 1.000000000000000000, 0.0000000000000000000, -0.0000000000000000000 ) ) ;
#164 = AXIS2_PLACEMENT_3D ( 'NONE', #52, #12, #11 ) ;
#165 = CARTESIAN_POINT ( 'NONE',  ( 0.0000000000000000000, 0.0000000000000000000, 11.96000000000001200 ) ) ;
#166 =( NAMED_UNIT ( * ) SI_UNIT ( $, .STERADIAN. ) SOLID_ANGLE_UNIT ( ) );
#167 = DIRECTION ( 'NONE',  ( 0.0000000000000000000, 0.0000000000000000000, 1.000000000000000000 ) ) ;
#168 = SURFACE_STYLE_FILL_AREA ( #98 ) ;
#169 = ADVANCED_FACE ( 'NONE', ( #43 ), #145, .T. ) ;
#170 = EDGE_CURVE ( 'NONE', #130, #48, #196, .T. ) ;
#171 = LINE ( 'NONE', #218, #225 ) ;
#172 = ORIENTED_EDGE ( 'NONE', *, *, #101, .F. ) ;
#173 = ADVANCED_FACE ( 'NONE', ( #235 ), #6, .T. ) ;
#174 = CIRCLE ( 'NONE', #107, 0.5000000000000000000 ) ;
#175 = DIRECTION ( 'NONE',  ( -1.000000000000000000, 0.0000000000000000000, 0.0000000000000000000 ) ) ;
#176 = FILL_AREA_STYLE_COLOUR ( '', #248 ) ;
#177 = CARTESIAN_POINT ( 'NONE',  ( -0.5000000000000000000, 0.0000000000000000000, -11.95999999999998300 ) ) ;
#178 = CARTESIAN_POINT ( 'NONE',  ( 0.0000000000000000000, 0.0000000000000000000, -11.95999999999998300 ) ) ;
#179 = ORIENTED_EDGE ( 'NONE', *, *, #155, .T. ) ;
#180 = CARTESIAN_POINT ( 'NONE',  ( -0.4600000000000097900, 0.0000000000000000000, 12.00000000000000200 ) ) ;
#181 = CARTESIAN_POINT ( 'NONE',  ( 0.0000000000000000000, 0.0000000000000000000, 12.00000000000000200 ) ) ;
#182 = EDGE_CURVE ( 'NONE', #84, #130, #203, .T. ) ;
#183 = DIRECTION ( 'NONE',  ( 0.7071067811865322500, 0.0000000000000000000, 0.7071067811865625600 ) ) ;
#184 = VECTOR ( 'NONE', #141, 39.37007874015748900 ) ;
#185 = DIRECTION ( 'NONE',  ( -1.000000000000000000, 0.0000000000000000000, 0.0000000000000000000 ) ) ;
#186 = DIRECTION ( 'NONE',  ( 1.000000000000000000, 0.0000000000000000000, 0.0000000000000000000 ) ) ;
#187 = APPLICATION_PROTOCOL_DEFINITION ( 'draft international standard', 'automotive_design', 1998, #207 ) ;
#188 = PRODUCT_CONTEXT ( 'NONE', #207, 'mechanical' ) ;
#189 = VERTEX_POINT ( 'NONE', #54 ) ;
#190 = VECTOR ( 'NONE', #96, 39.37007874015748100 ) ;
#191 = AXIS2_PLACEMENT_3D ( 'NONE', #75, #14, #185 ) ;
#192 = FACE_OUTER_BOUND ( 'NONE', #249, .T. ) ;
#193 = ORIENTED_EDGE ( 'NONE', *, *, #170, .F. ) ;
#194 = ORIENTED_EDGE ( 'NONE', *, *, #101, .T. ) ;
#195 = EDGE_CURVE ( 'NONE', #48, #17, #2, .T. ) ;
#196 = LINE ( 'NONE', #204, #190 ) ;
#197 = SURFACE_SIDE_STYLE ('',( #198 ) ) ;
#198 = SURFACE_STYLE_FILL_AREA ( #66 ) ;
#199 = ORIENTED_EDGE ( 'NONE', *, *, #132, .F. ) ;
#200 = DIRECTION ( 'NONE',  ( 0.0000000000000000000, 0.0000000000000000000, 1.000000000000000000 ) ) ;
#201 = CARTESIAN_POINT ( 'NONE',  ( 0.0000000000000000000, 0.0000000000000000000, 11.96000000000001200 ) ) ;
#202 = DIRECTION ( 'NONE',  ( 1.000000000000000000, 0.0000000000000000000, 0.0000000000000000000 ) ) ;
#203 = CIRCLE ( 'NONE', #214, 0.5000000000000000000 ) ;
#204 = CARTESIAN_POINT ( 'NONE',  ( -0.5000000000000000000, 0.0000000000000000000, 12.00000000000000200 ) ) ;
#205 = AXIS2_PLACEMENT_3D ( 'NONE', #224, #33, #163 ) ;
#206 = CARTESIAN_POINT ( 'NONE',  ( -0.4599999999999835300, 5.878304635907194900E-017, -12.00000000000000200 ) ) ;
#207 = APPLICATION_CONTEXT ( 'automotive_design' ) ;
#208 = EDGE_LOOP ( 'NONE', ( #152, #213 ) ) ;
#209 = APPLICATION_PROTOCOL_DEFINITION ( 'draft international standard', 'automotive_design', 1998, #79 ) ;
#210 = VERTEX_POINT ( 'NONE', #206 ) ;
#211 = AXIS2_PLACEMENT_3D ( 'NONE', #88, #236, #215 ) ;
#212 = EDGE_LOOP ( 'NONE', ( #36, #62, #199, #229 ) ) ;
#213 = ORIENTED_EDGE ( 'NONE', *, *, #112, .T. ) ;
#214 = AXIS2_PLACEMENT_3D ( 'NONE', #165, #55, #186 ) ;
#215 = DIRECTION ( 'NONE',  ( 1.000000000000000000, 0.0000000000000000000, 0.0000000000000000000 ) ) ;
#216 = ORIENTED_EDGE ( 'NONE', *, *, #182, .T. ) ;
#217 =( LENGTH_UNIT ( ) NAMED_UNIT ( * ) SI_UNIT ( $, .METRE. ) );
#218 = CARTESIAN_POINT ( 'NONE',  ( -0.4600000000000097900, 0.0000000000000000000, 12.00000000000000200 ) ) ;
#219 = CARTESIAN_POINT ( 'NONE',  ( 0.5000000000000000000, 6.123233995736764800E-017, 11.96000000000001200 ) ) ;
#220 = PRESENTATION_STYLE_ASSIGNMENT (( #116 ) ) ;
#221 = DIRECTION ( 'NONE',  ( 1.000000000000000000, 0.0000000000000000000, 0.0000000000000000000 ) ) ;
#222 = CARTESIAN_POINT ( 'NONE',  ( -0.5000000000000000000, 0.0000000000000000000, 11.96000000000001200 ) ) ;
#223 = AXIS2_PLACEMENT_3D ( 'NONE', #67, #200, #90 ) ;
#224 = CARTESIAN_POINT ( 'NONE',  ( 0.0000000000000000000, 0.0000000000000000000, 12.00000000000000200 ) ) ;
#225 = VECTOR ( 'NONE', #26, 39.37007874015748900 ) ;
#226 = CARTESIAN_POINT ( 'NONE',  ( 0.0000000000000000000, 0.0000000000000000000, -11.95999999999998300 ) ) ;
#227 = SURFACE_SIDE_STYLE ('',( #168 ) ) ;
#228 = ORIENTED_EDGE ( 'NONE', *, *, #112, .F. ) ;
#229 = ORIENTED_EDGE ( 'NONE', *, *, #142, .F. ) ;
#230 = LINE ( 'NONE', #31, #184 ) ;
#231 = AXIS2_PLACEMENT_3D ( 'NONE', #226, #114, #245 ) ;
#232 = EDGE_LOOP ( 'NONE', ( #91, #233, #9, #149 ) ) ;
#233 = ORIENTED_EDGE ( 'NONE', *, *, #42, .F. ) ;
#234 = AXIS2_PLACEMENT_3D ( 'NONE', #238, #124, #10 ) ;
#235 = FACE_OUTER_BOUND ( 'NONE', #37, .T. ) ;
#236 = DIRECTION ( 'NONE',  ( -0.0000000000000000000, -0.0000000000000000000, 1.000000000000000000 ) ) ;
#237 =( NAMED_UNIT ( * ) PLANE_ANGLE_UNIT ( ) SI_UNIT ( $, .RADIAN. ) );
#238 = CARTESIAN_POINT ( 'NONE',  ( 0.0000000000000000000, 0.0000000000000000000, -12.00000000000000200 ) ) ;
#239 = FACE_OUTER_BOUND ( 'NONE', #232, .T. ) ;
#240 = SHAPE_DEFINITION_REPRESENTATION ( #78, #136 ) ;
#241 = DIRECTION ( 'NONE',  ( 1.000000000000000000, 0.0000000000000000000, -0.0000000000000000000 ) ) ;
#242 = VECTOR ( 'NONE', #74, 39.37007874015748100 ) ;
#243 = FILL_AREA_STYLE_COLOUR ( '', #117 ) ;
#244 =( GEOMETRIC_REPRESENTATION_CONTEXT ( 3 ) GLOBAL_UNCERTAINTY_ASSIGNED_CONTEXT ( ( #22 ) ) GLOBAL_UNIT_ASSIGNED_CONTEXT ( ( #146, #35, #166 ) ) REPRESENTATION_CONTEXT ( 'NONE', 'WORKASPACE' ) );
#245 = DIRECTION ( 'NONE',  ( 1.000000000000000000, 0.0000000000000000000, 0.0000000000000000000 ) ) ;
#246 = PRODUCT_DEFINITION_CONTEXT ( 'detailed design', #79, 'design' ) ;
#247 =( LENGTH_UNIT ( ) NAMED_UNIT ( * ) SI_UNIT ( $, .METRE. ) );
#248 = COLOUR_RGB ( '',0.7921568627450980000, 0.8196078431372548800, 0.9333333333333333500 ) ;
#249 = EDGE_LOOP ( 'NONE', ( #80, #216, #59, #111 ) ) ;
ENDSEC;
END-ISO-10303-21;
