ISO-10303-21;
HEADER;
FILE_DESCRIPTION (( 'STEP AP214' ),
    '1' );
FILE_NAME ('RPSS16-36.step',
    '2017-08-09T17:49:02',
    ( '' ),
    ( '' ),
    'SwSTEP 2.0',
    'SolidWorks 2017',
    '' );
FILE_SCHEMA (( 'AUTOMOTIVE_DESIGN' ));
ENDSEC;

DATA;
#1 = VECTOR ( 'NONE', #94, 39.37007874015748100 ) ;
#2 = EDGE_LOOP ( 'NONE', ( #119, #56, #4, #180 ) ) ;
#3 = SHAPE_DEFINITION_REPRESENTATION ( #96, #97 ) ;
#4 = ORIENTED_EDGE ( 'NONE', *, *, #124, .F. ) ;
#5 = EDGE_CURVE ( 'NONE', #106, #232, #147, .T. ) ;
#6 = VECTOR ( 'NONE', #129, 39.37007874015748100 ) ;
#7 = UNCERTAINTY_MEASURE_WITH_UNIT (LENGTH_MEASURE( 1.000000000000000100E-005 ), #183, 'distance_accuracy_value', 'NONE');
#8 = CIRCLE ( 'NONE', #83, 0.4600000000000054600 ) ;
#9 = PRESENTATION_LAYER_ASSIGNMENT (  '', '', ( #33 ) ) ;
#10 = ORIENTED_EDGE ( 'NONE', *, *, #157, .T. ) ;
#11 = MECHANICAL_DESIGN_GEOMETRIC_PRESENTATION_REPRESENTATION (  '', ( #36 ), #246 ) ;
#12 = CONICAL_SURFACE ( 'NONE', #203, 0.4600000000000011300, 0.7853981633974808100 ) ;
#13 = ORIENTED_EDGE ( 'NONE', *, *, #235, .F. ) ;
#14 = DIRECTION ( 'NONE',  ( -1.000000000000000000, 0.0000000000000000000, 0.0000000000000000000 ) ) ;
#15 = APPLICATION_CONTEXT ( 'automotive_design' ) ;
#16 = CARTESIAN_POINT ( 'NONE',  ( -0.4600000000000011300, 0.0000000000000000000, 18.00000000000000000 ) ) ;
#17 = CARTESIAN_POINT ( 'NONE',  ( 0.0000000000000000000, 0.0000000000000000000, 18.00000000000000000 ) ) ;
#18 = EDGE_CURVE ( 'NONE', #156, #165, #8, .T. ) ;
#19 = CARTESIAN_POINT ( 'NONE',  ( 0.4600000000000011300, 5.878304635907302100E-017, 18.00000000000000000 ) ) ;
#20 = VECTOR ( 'NONE', #116, 39.37007874015748100 ) ;
#21 = PRESENTATION_STYLE_ASSIGNMENT (( #50 ) ) ;
#22 = AXIS2_PLACEMENT_3D ( 'NONE', #161, #226, #111 ) ;
#23 = VERTEX_POINT ( 'NONE', #191 ) ;
#24 = PRESENTATION_LAYER_ASSIGNMENT (  '', '', ( #36 ) ) ;
#25 = FACE_OUTER_BOUND ( 'NONE', #2, .T. ) ;
#26 = ADVANCED_FACE ( 'NONE', ( #195 ), #39, .T. ) ;
#27 = VERTEX_POINT ( 'NONE', #239 ) ;
#28 = EDGE_CURVE ( 'NONE', #165, #156, #101, .T. ) ;
#29 = CARTESIAN_POINT ( 'NONE',  ( 0.0000000000000000000, 0.0000000000000000000, 17.96000000000000400 ) ) ;
#30 = DIRECTION ( 'NONE',  ( 0.0000000000000000000, 0.0000000000000000000, 1.000000000000000000 ) ) ;
#31 = ORIENTED_EDGE ( 'NONE', *, *, #134, .T. ) ;
#32 = FILL_AREA_STYLE ('',( #54 ) ) ;
#33 = STYLED_ITEM ( 'NONE', ( #44 ), #77 ) ;
#34 = SURFACE_SIDE_STYLE ('',( #138 ) ) ;
#35 = CARTESIAN_POINT ( 'NONE',  ( 0.0000000000000000000, 0.0000000000000000000, 18.00000000000000000 ) ) ;
#36 = STYLED_ITEM ( 'NONE', ( #21 ), #97 ) ;
#37 = LENGTH_MEASURE_WITH_UNIT ( LENGTH_MEASURE( 0.02539999999999999900 ), #51 );
#38 = EDGE_LOOP ( 'NONE', ( #114, #99, #176, #13 ) ) ;
#39 = CONICAL_SURFACE ( 'NONE', #71, 0.5000000000000000000, 0.7853981633974261900 ) ;
#40 = ADVANCED_FACE ( 'NONE', ( #190 ), #108, .F. ) ;
#41 = VECTOR ( 'NONE', #168, 39.37007874015748100 ) ;
#42 = DIMENSIONAL_EXPONENTS ( 1.000000000000000000, 0.0000000000000000000, 0.0000000000000000000, 0.0000000000000000000, 0.0000000000000000000, 0.0000000000000000000, 0.0000000000000000000 ) ;
#43 = ORIENTED_EDGE ( 'NONE', *, *, #215, .F. ) ;
#44 = PRESENTATION_STYLE_ASSIGNMENT (( #167 ) ) ;
#45 = DIRECTION ( 'NONE',  ( 1.000000000000000000, 0.0000000000000000000, 0.0000000000000000000 ) ) ;
#46 = CARTESIAN_POINT ( 'NONE',  ( 0.0000000000000000000, 0.0000000000000000000, -17.96000000000000400 ) ) ;
#47 = UNCERTAINTY_MEASURE_WITH_UNIT (LENGTH_MEASURE( 1.000000000000000100E-005 ), #90, 'distance_accuracy_value', 'NONE');
#48 = LINE ( 'NONE', #210, #1 ) ;
#49 = CARTESIAN_POINT ( 'NONE',  ( 0.0000000000000000000, 0.0000000000000000000, -17.96000000000000400 ) ) ;
#50 = SURFACE_STYLE_USAGE ( .BOTH. , #164 ) ;
#51 =( LENGTH_UNIT ( ) NAMED_UNIT ( * ) SI_UNIT ( $, .METRE. ) );
#52 = ORIENTED_EDGE ( 'NONE', *, *, #230, .F. ) ;
#53 = CARTESIAN_POINT ( 'NONE',  ( -0.5000000000000000000, 0.0000000000000000000, 18.00000000000000000 ) ) ;
#54 = FILL_AREA_STYLE_COLOUR ( '', #122 ) ;
#55 = CONICAL_SURFACE ( 'NONE', #163, 0.5000000000000000000, 0.7853981633974261900 ) ;
#56 = ORIENTED_EDGE ( 'NONE', *, *, #146, .T. ) ;
#57 = AXIS2_PLACEMENT_3D ( 'NONE', #179, #66, #174 ) ;
#58 = ORIENTED_EDGE ( 'NONE', *, *, #5, .T. ) ;
#59 = CIRCLE ( 'NONE', #188, 0.5000000000000000000 ) ;
#60 =( GEOMETRIC_REPRESENTATION_CONTEXT ( 3 ) GLOBAL_UNCERTAINTY_ASSIGNED_CONTEXT ( ( #47 ) ) GLOBAL_UNIT_ASSIGNED_CONTEXT ( ( #90, #224, #110 ) ) REPRESENTATION_CONTEXT ( 'NONE', 'WORKASPACE' ) );
#61 = ORIENTED_EDGE ( 'NONE', *, *, #194, .F. ) ;
#62 = DIRECTION ( 'NONE',  ( 0.0000000000000000000, 0.0000000000000000000, -1.000000000000000000 ) ) ;
#63 = CARTESIAN_POINT ( 'NONE',  ( 0.0000000000000000000, 0.0000000000000000000, -17.96000000000000400 ) ) ;
#64 = DIRECTION ( 'NONE',  ( 1.000000000000000000, 0.0000000000000000000, 0.0000000000000000000 ) ) ;
#65 = LINE ( 'NONE', #247, #120 ) ;
#66 = DIRECTION ( 'NONE',  ( -0.0000000000000000000, -0.0000000000000000000, -1.000000000000000000 ) ) ;
#67 = DIRECTION ( 'NONE',  ( 1.000000000000000000, 0.0000000000000000000, 0.0000000000000000000 ) ) ;
#68 = SURFACE_STYLE_FILL_AREA ( #32 ) ;
#69 = ORIENTED_EDGE ( 'NONE', *, *, #28, .F. ) ;
#70 =( CONVERSION_BASED_UNIT ( 'INCH', #213 ) LENGTH_UNIT ( ) NAMED_UNIT ( #42 ) );
#71 = AXIS2_PLACEMENT_3D ( 'NONE', #46, #237, #64 ) ;
#72 =( NAMED_UNIT ( * ) PLANE_ANGLE_UNIT ( ) SI_UNIT ( $, .RADIAN. ) );
#73 = DIRECTION ( 'NONE',  ( -0.0000000000000000000, -0.0000000000000000000, 1.000000000000000000 ) ) ;
#74 = DIRECTION ( 'NONE',  ( -1.000000000000000000, 0.0000000000000000000, 0.0000000000000000000 ) ) ;
#75 = CARTESIAN_POINT ( 'NONE',  ( 0.0000000000000000000, 0.0000000000000000000, 17.96000000000000400 ) ) ;
#76 = LINE ( 'NONE', #204, #6 ) ;
#77 = MANIFOLD_SOLID_BREP ( 'Chamfer1', #234 ) ;
#78 = AXIS2_PLACEMENT_3D ( 'NONE', #231, #132, #74 ) ;
#79 = EDGE_LOOP ( 'NONE', ( #58, #31 ) ) ;
#80 = DIMENSIONAL_EXPONENTS ( 1.000000000000000000, 0.0000000000000000000, 0.0000000000000000000, 0.0000000000000000000, 0.0000000000000000000, 0.0000000000000000000, 0.0000000000000000000 ) ;
#81 = LENGTH_MEASURE_WITH_UNIT ( LENGTH_MEASURE( 0.02539999999999999900 ), #202 );
#82 = VERTEX_POINT ( 'NONE', #144 ) ;
#83 = AXIS2_PLACEMENT_3D ( 'NONE', #198, #86, #223 ) ;
#84 = CARTESIAN_POINT ( 'NONE',  ( 0.4600000000000011300, 5.633375276077838200E-017, 18.00000000000000000 ) ) ;
#85 = DIRECTION ( 'NONE',  ( 0.0000000000000000000, 0.0000000000000000000, 1.000000000000000000 ) ) ;
#86 = DIRECTION ( 'NONE',  ( -0.0000000000000000000, -0.0000000000000000000, -1.000000000000000000 ) ) ;
#87 = CYLINDRICAL_SURFACE ( 'NONE', #78, 0.5000000000000000000 ) ;
#88 = AXIS2_PLACEMENT_3D ( 'NONE', #17, #148, #131 ) ;
#89 = ORIENTED_EDGE ( 'NONE', *, *, #215, .T. ) ;
#90 =( CONVERSION_BASED_UNIT ( 'INCH', #81 ) LENGTH_UNIT ( ) NAMED_UNIT ( #80 ) );
#91 = DIRECTION ( 'NONE',  ( 0.7071067811865705500, 8.659560562355216400E-017, -0.7071067811865245900 ) ) ;
#92 =( NAMED_UNIT ( * ) SI_UNIT ( $, .STERADIAN. ) SOLID_ANGLE_UNIT ( ) );
#93 = DIRECTION ( 'NONE',  ( 0.0000000000000000000, 0.0000000000000000000, 1.000000000000000000 ) ) ;
#94 = DIRECTION ( 'NONE',  ( -0.0000000000000000000, -0.0000000000000000000, -1.000000000000000000 ) ) ;
#95 = DIRECTION ( 'NONE',  ( 1.000000000000000000, 0.0000000000000000000, 0.0000000000000000000 ) ) ;
#96 = PRODUCT_DEFINITION_SHAPE ( 'NONE', 'NONE',  #189 ) ;
#97 = ADVANCED_BREP_SHAPE_REPRESENTATION ( 'RPSS16-36', ( #77, #207 ), #60 ) ;
#98 = FACE_OUTER_BOUND ( 'NONE', #123, .T. ) ;
#99 = ORIENTED_EDGE ( 'NONE', *, *, #18, .F. ) ;
#100 = AXIS2_PLACEMENT_3D ( 'NONE', #139, #30, #159 ) ;
#101 = CIRCLE ( 'NONE', #57, 0.4600000000000054600 ) ;
#102 = ADVANCED_FACE ( 'NONE', ( #25 ), #216, .T. ) ;
#103 = LINE ( 'NONE', #53, #41 ) ;
#104 = ORIENTED_EDGE ( 'NONE', *, *, #172, .T. ) ;
#105 = AXIS2_PLACEMENT_3D ( 'NONE', #49, #181, #67 ) ;
#106 = VERTEX_POINT ( 'NONE', #16 ) ;
#107 = CARTESIAN_POINT ( 'NONE',  ( 0.4600000000000054600, 0.0000000000000000000, -18.00000000000000000 ) ) ;
#108 = PLANE ( 'NONE',  #22 ) ;
#109 = LINE ( 'NONE', #84, #153 ) ;
#110 =( NAMED_UNIT ( * ) SI_UNIT ( $, .STERADIAN. ) SOLID_ANGLE_UNIT ( ) );
#111 = DIRECTION ( 'NONE',  ( 1.000000000000000000, 0.0000000000000000000, -0.0000000000000000000 ) ) ;
#112 = DIRECTION ( 'NONE',  ( 0.0000000000000000000, 0.0000000000000000000, 1.000000000000000000 ) ) ;
#113 = EDGE_CURVE ( 'NONE', #106, #137, #65, .T. ) ;
#114 = ORIENTED_EDGE ( 'NONE', *, *, #157, .F. ) ;
#115 = DIRECTION ( 'NONE',  ( 0.0000000000000000000, 0.0000000000000000000, -1.000000000000000000 ) ) ;
#116 = DIRECTION ( 'NONE',  ( 0.7071067811865319200, 0.0000000000000000000, 0.7071067811865632300 ) ) ;
#117 = FACE_OUTER_BOUND ( 'NONE', #38, .T. ) ;
#118 = AXIS2_PLACEMENT_3D ( 'NONE', #35, #93, #229 ) ;
#119 = ORIENTED_EDGE ( 'NONE', *, *, #134, .F. ) ;
#120 = VECTOR ( 'NONE', #228, 39.37007874015748100 ) ;
#121 = ADVANCED_FACE ( 'NONE', ( #222 ), #12, .T. ) ;
#122 = COLOUR_RGB ( '',0.7921568627450980000, 0.8196078431372548800, 0.9333333333333333500 ) ;
#123 = EDGE_LOOP ( 'NONE', ( #61, #201, #89, #170 ) ) ;
#124 = EDGE_CURVE ( 'NONE', #137, #27, #59, .T. ) ;
#125 = FILL_AREA_STYLE ('',( #140 ) ) ;
#126 = AXIS2_PLACEMENT_3D ( 'NONE', #75, #211, #95 ) ;
#127 = ORIENTED_EDGE ( 'NONE', *, *, #28, .T. ) ;
#128 = APPLICATION_PROTOCOL_DEFINITION ( 'draft international standard', 'automotive_design', 1998, #143 ) ;
#129 = DIRECTION ( 'NONE',  ( -0.7071067811865319200, 8.659560562354741800E-017, 0.7071067811865632300 ) ) ;
#130 = PRODUCT_CONTEXT ( 'NONE', #143, 'mechanical' ) ;
#131 = DIRECTION ( 'NONE',  ( -1.000000000000000000, 0.0000000000000000000, 0.0000000000000000000 ) ) ;
#132 = DIRECTION ( 'NONE',  ( -0.0000000000000000000, -0.0000000000000000000, -1.000000000000000000 ) ) ;
#133 = ORIENTED_EDGE ( 'NONE', *, *, #5, .F. ) ;
#134 = EDGE_CURVE ( 'NONE', #232, #106, #169, .T. ) ;
#135 = ADVANCED_FACE ( 'NONE', ( #117 ), #55, .T. ) ;
#136 = UNCERTAINTY_MEASURE_WITH_UNIT (LENGTH_MEASURE( 1.000000000000000100E-005 ), #70, 'distance_accuracy_value', 'NONE');
#137 = VERTEX_POINT ( 'NONE', #238 ) ;
#138 = SURFACE_STYLE_FILL_AREA ( #125 ) ;
#139 = CARTESIAN_POINT ( 'NONE',  ( 0.0000000000000000000, 0.0000000000000000000, 18.00000000000000000 ) ) ;
#140 = FILL_AREA_STYLE_COLOUR ( '', #249 ) ;
#141 = CYLINDRICAL_SURFACE ( 'NONE', #88, 0.5000000000000000000 ) ;
#142 = EDGE_LOOP ( 'NONE', ( #69, #10, #187, #225 ) ) ;
#143 = APPLICATION_CONTEXT ( 'automotive_design' ) ;
#144 = CARTESIAN_POINT ( 'NONE',  ( 0.5000000000000000000, 6.123233995736766000E-017, -17.96000000000000400 ) ) ;
#145 = APPLICATION_PROTOCOL_DEFINITION ( 'draft international standard', 'automotive_design', 1998, #15 ) ;
#146 = EDGE_CURVE ( 'NONE', #232, #27, #109, .T. ) ;
#147 = CIRCLE ( 'NONE', #100, 0.4600000000000011300 ) ;
#148 = DIRECTION ( 'NONE',  ( -0.0000000000000000000, -0.0000000000000000000, -1.000000000000000000 ) ) ;
#149 = FACE_OUTER_BOUND ( 'NONE', #154, .T. ) ;
#150 = ORIENTED_EDGE ( 'NONE', *, *, #146, .F. ) ;
#151 = AXIS2_PLACEMENT_3D ( 'NONE', #184, #73, #209 ) ;
#152 = ORIENTED_EDGE ( 'NONE', *, *, #124, .T. ) ;
#153 = VECTOR ( 'NONE', #91, 39.37007874015748100 ) ;
#154 = EDGE_LOOP ( 'NONE', ( #152, #206, #104, #43 ) ) ;
#155 = DIMENSIONAL_EXPONENTS ( 1.000000000000000000, 0.0000000000000000000, 0.0000000000000000000, 0.0000000000000000000, 0.0000000000000000000, 0.0000000000000000000, 0.0000000000000000000 ) ;
#156 = VERTEX_POINT ( 'NONE', #107 ) ;
#157 = EDGE_CURVE ( 'NONE', #165, #23, #76, .T. ) ;
#158 = DIRECTION ( 'NONE',  ( 0.0000000000000000000, 0.0000000000000000000, -1.000000000000000000 ) ) ;
#159 = DIRECTION ( 'NONE',  ( 1.000000000000000000, 0.0000000000000000000, 0.0000000000000000000 ) ) ;
#160 = LINE ( 'NONE', #248, #20 ) ;
#161 = CARTESIAN_POINT ( 'NONE',  ( 0.0000000000000000000, 0.0000000000000000000, -18.00000000000000000 ) ) ;
#162 = CARTESIAN_POINT ( 'NONE',  ( 0.0000000000000000000, 0.0000000000000000000, 0.0000000000000000000 ) ) ;
#163 = AXIS2_PLACEMENT_3D ( 'NONE', #63, #236, #220 ) ;
#164 = SURFACE_SIDE_STYLE ('',( #68 ) ) ;
#165 = VERTEX_POINT ( 'NONE', #227 ) ;
#166 = PRODUCT_RELATED_PRODUCT_CATEGORY ( 'part', '', ( #171 ) ) ;
#167 = SURFACE_STYLE_USAGE ( .BOTH. , #34 ) ;
#168 = DIRECTION ( 'NONE',  ( -0.0000000000000000000, -0.0000000000000000000, -1.000000000000000000 ) ) ;
#169 = CIRCLE ( 'NONE', #175, 0.4600000000000011300 ) ;
#170 = ORIENTED_EDGE ( 'NONE', *, *, #235, .T. ) ;
#171 = PRODUCT ( 'RPSS16-36', 'RPSS16-36', '', ( #130 ) ) ;
#172 = EDGE_CURVE ( 'NONE', #82, #23, #212, .T. ) ;
#173 = ADVANCED_FACE ( 'NONE', ( #200 ), #244, .T. ) ;
#174 = DIRECTION ( 'NONE',  ( 1.000000000000000000, 0.0000000000000000000, 0.0000000000000000000 ) ) ;
#175 = AXIS2_PLACEMENT_3D ( 'NONE', #197, #85, #221 ) ;
#176 = ORIENTED_EDGE ( 'NONE', *, *, #185, .T. ) ;
#177 = PRODUCT_DEFINITION_FORMATION_WITH_SPECIFIED_SOURCE ( 'ANY', '', #171, .NOT_KNOWN. ) ;
#178 = CARTESIAN_POINT ( 'NONE',  ( 0.0000000000000000000, 0.0000000000000000000, 18.00000000000000000 ) ) ;
#179 = CARTESIAN_POINT ( 'NONE',  ( 0.0000000000000000000, 0.0000000000000000000, -18.00000000000000000 ) ) ;
#180 = ORIENTED_EDGE ( 'NONE', *, *, #113, .F. ) ;
#181 = DIRECTION ( 'NONE',  ( -0.0000000000000000000, -0.0000000000000000000, 1.000000000000000000 ) ) ;
#182 =( LENGTH_UNIT ( ) NAMED_UNIT ( * ) SI_UNIT ( $, .METRE. ) );
#183 =( CONVERSION_BASED_UNIT ( 'INCH', #37 ) LENGTH_UNIT ( ) NAMED_UNIT ( #155 ) );
#184 = CARTESIAN_POINT ( 'NONE',  ( 0.0000000000000000000, 0.0000000000000000000, -17.96000000000000400 ) ) ;
#185 = EDGE_CURVE ( 'NONE', #156, #82, #160, .T. ) ;
#186 = CIRCLE ( 'NONE', #126, 0.5000000000000000000 ) ;
#187 = ORIENTED_EDGE ( 'NONE', *, *, #172, .F. ) ;
#188 = AXIS2_PLACEMENT_3D ( 'NONE', #29, #158, #45 ) ;
#189 = PRODUCT_DEFINITION ( 'UNKNOWN', '', #177, #199 ) ;
#190 = FACE_OUTER_BOUND ( 'NONE', #214, .T. ) ;
#191 = CARTESIAN_POINT ( 'NONE',  ( -0.5000000000000000000, 0.0000000000000000000, -17.96000000000000400 ) ) ;
#192 = ADVANCED_FACE ( 'NONE', ( #149 ), #141, .T. ) ;
#193 = EDGE_LOOP ( 'NONE', ( #150, #133, #219, #52 ) ) ;
#194 = EDGE_CURVE ( 'NONE', #27, #82, #48, .T. ) ;
#195 = FACE_OUTER_BOUND ( 'NONE', #142, .T. ) ;
#196 = DIRECTION ( 'NONE',  ( -1.000000000000000000, 0.0000000000000000000, 0.0000000000000000000 ) ) ;
#197 = CARTESIAN_POINT ( 'NONE',  ( 0.0000000000000000000, 0.0000000000000000000, 18.00000000000000000 ) ) ;
#198 = CARTESIAN_POINT ( 'NONE',  ( 0.0000000000000000000, 0.0000000000000000000, -18.00000000000000000 ) ) ;
#199 = PRODUCT_DEFINITION_CONTEXT ( 'detailed design', #15, 'design' ) ;
#200 = FACE_OUTER_BOUND ( 'NONE', #79, .T. ) ;
#201 = ORIENTED_EDGE ( 'NONE', *, *, #230, .T. ) ;
#202 =( LENGTH_UNIT ( ) NAMED_UNIT ( * ) SI_UNIT ( $, .METRE. ) );
#203 = AXIS2_PLACEMENT_3D ( 'NONE', #178, #62, #196 ) ;
#204 = CARTESIAN_POINT ( 'NONE',  ( -0.5000000000000000000, 6.123233995736766000E-017, -17.96000000000000400 ) ) ;
#205 =( NAMED_UNIT ( * ) PLANE_ANGLE_UNIT ( ) SI_UNIT ( $, .RADIAN. ) );
#206 = ORIENTED_EDGE ( 'NONE', *, *, #194, .T. ) ;
#207 = AXIS2_PLACEMENT_3D ( 'NONE', #162, #112, #245 ) ;
#208 =( NAMED_UNIT ( * ) SI_UNIT ( $, .STERADIAN. ) SOLID_ANGLE_UNIT ( ) );
#209 = DIRECTION ( 'NONE',  ( 1.000000000000000000, 0.0000000000000000000, 0.0000000000000000000 ) ) ;
#210 = CARTESIAN_POINT ( 'NONE',  ( 0.5000000000000000000, 6.123233995736766000E-017, 18.00000000000000000 ) ) ;
#211 = DIRECTION ( 'NONE',  ( 0.0000000000000000000, 0.0000000000000000000, -1.000000000000000000 ) ) ;
#212 = CIRCLE ( 'NONE', #151, 0.5000000000000000000 ) ;
#213 = LENGTH_MEASURE_WITH_UNIT ( LENGTH_MEASURE( 0.02539999999999999900 ), #182 );
#214 = EDGE_LOOP ( 'NONE', ( #241, #127 ) ) ;
#215 = EDGE_CURVE ( 'NONE', #137, #23, #103, .T. ) ;
#216 = CONICAL_SURFACE ( 'NONE', #218, 0.4600000000000011300, 0.7853981633974808100 ) ;
#217 = ADVANCED_FACE ( 'NONE', ( #98 ), #87, .T. ) ;
#218 = AXIS2_PLACEMENT_3D ( 'NONE', #243, #115, #14 ) ;
#219 = ORIENTED_EDGE ( 'NONE', *, *, #113, .T. ) ;
#220 = DIRECTION ( 'NONE',  ( 1.000000000000000000, 0.0000000000000000000, 0.0000000000000000000 ) ) ;
#221 = DIRECTION ( 'NONE',  ( 1.000000000000000000, 0.0000000000000000000, 0.0000000000000000000 ) ) ;
#222 = FACE_OUTER_BOUND ( 'NONE', #193, .T. ) ;
#223 = DIRECTION ( 'NONE',  ( 1.000000000000000000, 0.0000000000000000000, 0.0000000000000000000 ) ) ;
#224 =( NAMED_UNIT ( * ) PLANE_ANGLE_UNIT ( ) SI_UNIT ( $, .RADIAN. ) );
#225 = ORIENTED_EDGE ( 'NONE', *, *, #185, .F. ) ;
#226 = DIRECTION ( 'NONE',  ( 0.0000000000000000000, 0.0000000000000000000, 1.000000000000000000 ) ) ;
#227 = CARTESIAN_POINT ( 'NONE',  ( -0.4600000000000054600, 5.878304635907329200E-017, -18.00000000000000000 ) ) ;
#228 = DIRECTION ( 'NONE',  ( -0.7071067811865705500, 0.0000000000000000000, -0.7071067811865245900 ) ) ;
#229 = DIRECTION ( 'NONE',  ( 1.000000000000000000, 0.0000000000000000000, -0.0000000000000000000 ) ) ;
#230 = EDGE_CURVE ( 'NONE', #27, #137, #186, .T. ) ;
#231 = CARTESIAN_POINT ( 'NONE',  ( 0.0000000000000000000, 0.0000000000000000000, 18.00000000000000000 ) ) ;
#232 = VERTEX_POINT ( 'NONE', #19 ) ;
#233 =( GEOMETRIC_REPRESENTATION_CONTEXT ( 3 ) GLOBAL_UNCERTAINTY_ASSIGNED_CONTEXT ( ( #7 ) ) GLOBAL_UNIT_ASSIGNED_CONTEXT ( ( #183, #72, #208 ) ) REPRESENTATION_CONTEXT ( 'NONE', 'WORKASPACE' ) );
#234 = CLOSED_SHELL ( 'NONE', ( #102, #26, #192, #217, #173, #40, #135, #121 ) ) ;
#235 = EDGE_CURVE ( 'NONE', #23, #82, #240, .T. ) ;
#236 = DIRECTION ( 'NONE',  ( -0.0000000000000000000, -0.0000000000000000000, 1.000000000000000000 ) ) ;
#237 = DIRECTION ( 'NONE',  ( -0.0000000000000000000, -0.0000000000000000000, 1.000000000000000000 ) ) ;
#238 = CARTESIAN_POINT ( 'NONE',  ( -0.5000000000000000000, 0.0000000000000000000, 17.96000000000000400 ) ) ;
#239 = CARTESIAN_POINT ( 'NONE',  ( 0.5000000000000000000, 6.123233995736766000E-017, 17.96000000000000400 ) ) ;
#240 = CIRCLE ( 'NONE', #105, 0.5000000000000000000 ) ;
#241 = ORIENTED_EDGE ( 'NONE', *, *, #18, .T. ) ;
#242 = MECHANICAL_DESIGN_GEOMETRIC_PRESENTATION_REPRESENTATION (  '', ( #33 ), #233 ) ;
#243 = CARTESIAN_POINT ( 'NONE',  ( 0.0000000000000000000, 0.0000000000000000000, 18.00000000000000000 ) ) ;
#244 = PLANE ( 'NONE',  #118 ) ;
#245 = DIRECTION ( 'NONE',  ( 1.000000000000000000, 0.0000000000000000000, 0.0000000000000000000 ) ) ;
#246 =( GEOMETRIC_REPRESENTATION_CONTEXT ( 3 ) GLOBAL_UNCERTAINTY_ASSIGNED_CONTEXT ( ( #136 ) ) GLOBAL_UNIT_ASSIGNED_CONTEXT ( ( #70, #205, #92 ) ) REPRESENTATION_CONTEXT ( 'NONE', 'WORKASPACE' ) );
#247 = CARTESIAN_POINT ( 'NONE',  ( -0.4600000000000011300, 0.0000000000000000000, 18.00000000000000000 ) ) ;
#248 = CARTESIAN_POINT ( 'NONE',  ( 0.5000000000000000000, 0.0000000000000000000, -17.96000000000000400 ) ) ;
#249 = COLOUR_RGB ( '',0.7921568627450980000, 0.8196078431372548800, 0.9333333333333333500 ) ;
ENDSEC;
END-ISO-10303-21;
