ISO-10303-21;
HEADER;
FILE_DESCRIPTION (( 'STEP AP214' ),
    '1' );
FILE_NAME ('RPSS20-12.step',
    '2017-08-09T17:49:18',
    ( '' ),
    ( '' ),
    'SwSTEP 2.0',
    'SolidWorks 2017',
    '' );
FILE_SCHEMA (( 'AUTOMOTIVE_DESIGN' ));
ENDSEC;

DATA;
#1 =( CONVERSION_BASED_UNIT ( 'INCH', #232 ) LENGTH_UNIT ( ) NAMED_UNIT ( #29 ) );
#2 = PRESENTATION_LAYER_ASSIGNMENT (  '', '', ( #235 ) ) ;
#3 = ORIENTED_EDGE ( 'NONE', *, *, #121, .F. ) ;
#4 = VECTOR ( 'NONE', #15, 39.37007874015748100 ) ;
#5 = MECHANICAL_DESIGN_GEOMETRIC_PRESENTATION_REPRESENTATION (  '', ( #229 ), #20 ) ;
#6 = ADVANCED_FACE ( 'NONE', ( #110 ), #12, .T. ) ;
#7 = EDGE_CURVE ( 'NONE', #152, #162, #216, .T. ) ;
#8 = EDGE_LOOP ( 'NONE', ( #153, #126, #55, #3 ) ) ;
#9 = ORIENTED_EDGE ( 'NONE', *, *, #127, .F. ) ;
#10 = CARTESIAN_POINT ( 'NONE',  ( 0.0000000000000000000, 0.0000000000000000000, 5.950000000000007300 ) ) ;
#11 = SURFACE_SIDE_STYLE ('',( #172 ) ) ;
#12 = CONICAL_SURFACE ( 'NONE', #180, 0.6250000000000000000, 0.7853981633974387300 ) ;
#13 = MECHANICAL_DESIGN_GEOMETRIC_PRESENTATION_REPRESENTATION (  '', ( #235 ), #26 ) ;
#14 = CARTESIAN_POINT ( 'NONE',  ( 0.0000000000000000000, 0.0000000000000000000, -6.000000000000000900 ) ) ;
#15 = DIRECTION ( 'NONE',  ( -0.0000000000000000000, -0.0000000000000000000, -1.000000000000000000 ) ) ;
#16 = CYLINDRICAL_SURFACE ( 'NONE', #201, 0.6250000000000000000 ) ;
#17 = DIRECTION ( 'NONE',  ( -0.0000000000000000000, -0.0000000000000000000, -1.000000000000000000 ) ) ;
#18 = CARTESIAN_POINT ( 'NONE',  ( 0.5749999999999903000, 0.0000000000000000000, -6.000000000000000900 ) ) ;
#19 =( CONVERSION_BASED_UNIT ( 'INCH', #72 ) LENGTH_UNIT ( ) NAMED_UNIT ( #167 ) );
#20 =( GEOMETRIC_REPRESENTATION_CONTEXT ( 3 ) GLOBAL_UNCERTAINTY_ASSIGNED_CONTEXT ( ( #240 ) ) GLOBAL_UNIT_ASSIGNED_CONTEXT ( ( #171, #53, #184 ) ) REPRESENTATION_CONTEXT ( 'NONE', 'WORKASPACE' ) );
#21 = UNCERTAINTY_MEASURE_WITH_UNIT (LENGTH_MEASURE( 1.000000000000000100E-005 ), #1, 'distance_accuracy_value', 'NONE');
#22 =( NAMED_UNIT ( * ) SI_UNIT ( $, .STERADIAN. ) SOLID_ANGLE_UNIT ( ) );
#23 = EDGE_CURVE ( 'NONE', #231, #43, #64, .T. ) ;
#24 = SHAPE_DEFINITION_REPRESENTATION ( #25, #161 ) ;
#25 = PRODUCT_DEFINITION_SHAPE ( 'NONE', 'NONE',  #78 ) ;
#26 =( GEOMETRIC_REPRESENTATION_CONTEXT ( 3 ) GLOBAL_UNCERTAINTY_ASSIGNED_CONTEXT ( ( #21 ) ) GLOBAL_UNIT_ASSIGNED_CONTEXT ( ( #1, #136, #22 ) ) REPRESENTATION_CONTEXT ( 'NONE', 'WORKASPACE' ) );
#27 = ADVANCED_FACE ( 'NONE', ( #166 ), #219, .T. ) ;
#28 = ORIENTED_EDGE ( 'NONE', *, *, #102, .T. ) ;
#29 = DIMENSIONAL_EXPONENTS ( 1.000000000000000000, 0.0000000000000000000, 0.0000000000000000000, 0.0000000000000000000, 0.0000000000000000000, 0.0000000000000000000, 0.0000000000000000000 ) ;
#30 = DIRECTION ( 'NONE',  ( 1.000000000000000000, 0.0000000000000000000, 0.0000000000000000000 ) ) ;
#31 = AXIS2_PLACEMENT_3D ( 'NONE', #14, #151, #33 ) ;
#32 =( LENGTH_UNIT ( ) NAMED_UNIT ( * ) SI_UNIT ( $, .METRE. ) );
#33 = DIRECTION ( 'NONE',  ( 1.000000000000000000, 0.0000000000000000000, 0.0000000000000000000 ) ) ;
#34 = CARTESIAN_POINT ( 'NONE',  ( -0.6250000000000000000, 0.0000000000000000000, 6.000000000000000900 ) ) ;
#35 = EDGE_LOOP ( 'NONE', ( #44, #139, #225, #9 ) ) ;
#36 = ORIENTED_EDGE ( 'NONE', *, *, #84, .F. ) ;
#37 = MANIFOLD_SOLID_BREP ( 'Chamfer1', #244 ) ;
#38 = DIRECTION ( 'NONE',  ( 0.0000000000000000000, 0.0000000000000000000, 1.000000000000000000 ) ) ;
#39 = EDGE_CURVE ( 'NONE', #196, #79, #183, .T. ) ;
#40 = FACE_OUTER_BOUND ( 'NONE', #8, .T. ) ;
#41 =( NAMED_UNIT ( * ) SI_UNIT ( $, .STERADIAN. ) SOLID_ANGLE_UNIT ( ) );
#42 = DIRECTION ( 'NONE',  ( 0.0000000000000000000, 0.0000000000000000000, 1.000000000000000000 ) ) ;
#43 = VERTEX_POINT ( 'NONE', #87 ) ;
#44 = ORIENTED_EDGE ( 'NONE', *, *, #102, .F. ) ;
#45 = FACE_OUTER_BOUND ( 'NONE', #83, .T. ) ;
#46 = AXIS2_PLACEMENT_3D ( 'NONE', #185, #71, #210 ) ;
#47 = ADVANCED_FACE ( 'NONE', ( #40 ), #192, .T. ) ;
#48 = ORIENTED_EDGE ( 'NONE', *, *, #23, .F. ) ;
#49 = EDGE_CURVE ( 'NONE', #99, #79, #142, .T. ) ;
#50 = DIRECTION ( 'NONE',  ( -0.0000000000000000000, -0.0000000000000000000, 1.000000000000000000 ) ) ;
#51 = LINE ( 'NONE', #56, #197 ) ;
#52 = DIRECTION ( 'NONE',  ( -1.000000000000000000, 0.0000000000000000000, 0.0000000000000000000 ) ) ;
#53 =( NAMED_UNIT ( * ) PLANE_ANGLE_UNIT ( ) SI_UNIT ( $, .RADIAN. ) );
#54 = CARTESIAN_POINT ( 'NONE',  ( 0.6250000000000000000, 0.0000000000000000000, -5.949999999999989500 ) ) ;
#55 = ORIENTED_EDGE ( 'NONE', *, *, #49, .T. ) ;
#56 = CARTESIAN_POINT ( 'NONE',  ( 0.6250000000000000000, 7.654042494670955400E-017, 6.000000000000000900 ) ) ;
#57 = DIRECTION ( 'NONE',  ( 0.0000000000000000000, 0.0000000000000000000, -1.000000000000000000 ) ) ;
#58 = DIRECTION ( 'NONE',  ( -1.000000000000000000, 0.0000000000000000000, 0.0000000000000000000 ) ) ;
#59 = FACE_OUTER_BOUND ( 'NONE', #109, .T. ) ;
#60 = DIRECTION ( 'NONE',  ( 1.000000000000000000, 0.0000000000000000000, -0.0000000000000000000 ) ) ;
#61 = APPLICATION_PROTOCOL_DEFINITION ( 'draft international standard', 'automotive_design', 1998, #76 ) ;
#62 = AXIS2_PLACEMENT_3D ( 'NONE', #113, #221, #206 ) ;
#63 = PRODUCT_CONTEXT ( 'NONE', #76, 'mechanical' ) ;
#64 = CIRCLE ( 'NONE', #207, 0.5750000000000067300 ) ;
#65 = FACE_OUTER_BOUND ( 'NONE', #104, .T. ) ;
#66 = EDGE_CURVE ( 'NONE', #195, #99, #86, .T. ) ;
#67 = PRESENTATION_STYLE_ASSIGNMENT (( #148 ) ) ;
#68 = AXIS2_PLACEMENT_3D ( 'NONE', #75, #42, #178 ) ;
#69 = DIRECTION ( 'NONE',  ( 0.0000000000000000000, 0.0000000000000000000, 1.000000000000000000 ) ) ;
#70 = AXIS2_PLACEMENT_3D ( 'NONE', #243, #209, #129 ) ;
#71 = DIRECTION ( 'NONE',  ( -0.0000000000000000000, -0.0000000000000000000, 1.000000000000000000 ) ) ;
#72 = LENGTH_MEASURE_WITH_UNIT ( LENGTH_MEASURE( 0.02539999999999999900 ), #134 );
#73 = CARTESIAN_POINT ( 'NONE',  ( 0.0000000000000000000, 0.0000000000000000000, 6.000000000000000900 ) ) ;
#74 = EDGE_CURVE ( 'NONE', #196, #195, #135, .T. ) ;
#75 = CARTESIAN_POINT ( 'NONE',  ( 0.0000000000000000000, 0.0000000000000000000, 0.0000000000000000000 ) ) ;
#76 = APPLICATION_CONTEXT ( 'automotive_design' ) ;
#77 = APPLICATION_PROTOCOL_DEFINITION ( 'draft international standard', 'automotive_design', 1998, #194 ) ;
#78 = PRODUCT_DEFINITION ( 'UNKNOWN', '', #91, #200 ) ;
#79 = VERTEX_POINT ( 'NONE', #222 ) ;
#80 = AXIS2_PLACEMENT_3D ( 'NONE', #186, #154, #245 ) ;
#81 = ADVANCED_FACE ( 'NONE', ( #45 ), #103, .T. ) ;
#82 = ORIENTED_EDGE ( 'NONE', *, *, #74, .T. ) ;
#83 = EDGE_LOOP ( 'NONE', ( #48, #28, #93, #237 ) ) ;
#84 = EDGE_CURVE ( 'NONE', #162, #99, #51, .T. ) ;
#85 = DIRECTION ( 'NONE',  ( 1.000000000000000000, 0.0000000000000000000, 0.0000000000000000000 ) ) ;
#86 = LINE ( 'NONE', #54, #239 ) ;
#87 = CARTESIAN_POINT ( 'NONE',  ( -0.5750000000000067300, 0.0000000000000000000, 6.000000000000000900 ) ) ;
#88 = DIRECTION ( 'NONE',  ( -0.7071067811865406900, 8.659560562354847800E-017, 0.7071067811865542300 ) ) ;
#89 = ORIENTED_EDGE ( 'NONE', *, *, #39, .F. ) ;
#90 = DIRECTION ( 'NONE',  ( -0.0000000000000000000, -0.0000000000000000000, -1.000000000000000000 ) ) ;
#91 = PRODUCT_DEFINITION_FORMATION_WITH_SPECIFIED_SOURCE ( 'ANY', '', #233, .NOT_KNOWN. ) ;
#92 = ORIENTED_EDGE ( 'NONE', *, *, #49, .F. ) ;
#93 = ORIENTED_EDGE ( 'NONE', *, *, #7, .F. ) ;
#94 = PLANE ( 'NONE',  #124 ) ;
#95 = CARTESIAN_POINT ( 'NONE',  ( 0.0000000000000000000, 0.0000000000000000000, -5.949999999999989500 ) ) ;
#96 = DIRECTION ( 'NONE',  ( -0.0000000000000000000, -0.0000000000000000000, -1.000000000000000000 ) ) ;
#97 = FACE_OUTER_BOUND ( 'NONE', #187, .T. ) ;
#98 = CARTESIAN_POINT ( 'NONE',  ( -0.5750000000000067300, 0.0000000000000000000, 6.000000000000000900 ) ) ;
#99 = VERTEX_POINT ( 'NONE', #223 ) ;
#100 = SURFACE_SIDE_STYLE ('',( #107 ) ) ;
#101 = ORIENTED_EDGE ( 'NONE', *, *, #141, .F. ) ;
#102 = EDGE_CURVE ( 'NONE', #231, #162, #114, .T. ) ;
#103 = CONICAL_SURFACE ( 'NONE', #70, 0.5750000000000067300, 0.7853981633974497200 ) ;
#104 = EDGE_LOOP ( 'NONE', ( #36, #204, #188, #199 ) ) ;
#105 = PRODUCT_RELATED_PRODUCT_CATEGORY ( 'part', '', ( #233 ) ) ;
#106 = ADVANCED_FACE ( 'NONE', ( #97 ), #163, .T. ) ;
#107 = SURFACE_STYLE_FILL_AREA ( #214 ) ;
#108 = LINE ( 'NONE', #34, #4 ) ;
#109 = EDGE_LOOP ( 'NONE', ( #236, #82 ) ) ;
#110 = FACE_OUTER_BOUND ( 'NONE', #144, .T. ) ;
#111 = CARTESIAN_POINT ( 'NONE',  ( -0.6250000000000000000, 7.654042494670957900E-017, -5.949999999999989500 ) ) ;
#112 = AXIS2_PLACEMENT_3D ( 'NONE', #174, #57, #189 ) ;
#113 = CARTESIAN_POINT ( 'NONE',  ( 0.0000000000000000000, 0.0000000000000000000, 6.000000000000000900 ) ) ;
#114 = LINE ( 'NONE', #115, #157 ) ;
#115 = CARTESIAN_POINT ( 'NONE',  ( 0.5750000000000067300, 7.041719095097364000E-017, 6.000000000000000900 ) ) ;
#116 = PRESENTATION_STYLE_ASSIGNMENT (( #230 ) ) ;
#117 = DIRECTION ( 'NONE',  ( 1.000000000000000000, 0.0000000000000000000, -0.0000000000000000000 ) ) ;
#118 = DIRECTION ( 'NONE',  ( 1.000000000000000000, 0.0000000000000000000, 0.0000000000000000000 ) ) ;
#119 = FACE_OUTER_BOUND ( 'NONE', #143, .T. ) ;
#120 = ORIENTED_EDGE ( 'NONE', *, *, #66, .T. ) ;
#121 = EDGE_CURVE ( 'NONE', #152, #79, #108, .T. ) ;
#122 =( LENGTH_UNIT ( ) NAMED_UNIT ( * ) SI_UNIT ( $, .METRE. ) );
#123 = COLOUR_RGB ( '',0.7921568627450980000, 0.8196078431372548800, 0.9333333333333333500 ) ;
#124 = AXIS2_PLACEMENT_3D ( 'NONE', #173, #224, #117 ) ;
#125 = ADVANCED_FACE ( 'NONE', ( #59 ), #94, .F. ) ;
#126 = ORIENTED_EDGE ( 'NONE', *, *, #84, .T. ) ;
#127 = EDGE_CURVE ( 'NONE', #162, #152, #248, .T. ) ;
#128 = FILL_AREA_STYLE ('',( #242 ) ) ;
#129 = DIRECTION ( 'NONE',  ( -1.000000000000000000, 0.0000000000000000000, 0.0000000000000000000 ) ) ;
#130 = DIRECTION ( 'NONE',  ( 0.7071067811865484600, 8.659560562354944000E-017, -0.7071067811865464600 ) ) ;
#131 = ORIENTED_EDGE ( 'NONE', *, *, #169, .F. ) ;
#132 = CARTESIAN_POINT ( 'NONE',  ( 0.0000000000000000000, 0.0000000000000000000, 6.000000000000000900 ) ) ;
#133 = CARTESIAN_POINT ( 'NONE',  ( 0.5750000000000067300, 7.347880794884160900E-017, 6.000000000000000900 ) ) ;
#134 =( LENGTH_UNIT ( ) NAMED_UNIT ( * ) SI_UNIT ( $, .METRE. ) );
#135 = CIRCLE ( 'NONE', #31, 0.5749999999999903000 ) ;
#136 =( NAMED_UNIT ( * ) PLANE_ANGLE_UNIT ( ) SI_UNIT ( $, .RADIAN. ) );
#137 = AXIS2_PLACEMENT_3D ( 'NONE', #95, #226, #118 ) ;
#138 = ORIENTED_EDGE ( 'NONE', *, *, #66, .F. ) ;
#139 = ORIENTED_EDGE ( 'NONE', *, *, #159, .F. ) ;
#140 = COLOUR_RGB ( '',0.7921568627450980000, 0.8196078431372548800, 0.9333333333333333500 ) ;
#141 = EDGE_CURVE ( 'NONE', #79, #99, #205, .T. ) ;
#142 = CIRCLE ( 'NONE', #46, 0.6250000000000000000 ) ;
#143 = EDGE_LOOP ( 'NONE', ( #164, #203 ) ) ;
#144 = EDGE_LOOP ( 'NONE', ( #193, #249, #92, #138 ) ) ;
#145 = DIMENSIONAL_EXPONENTS ( 1.000000000000000000, 0.0000000000000000000, 0.0000000000000000000, 0.0000000000000000000, 0.0000000000000000000, 0.0000000000000000000, 0.0000000000000000000 ) ;
#146 = CIRCLE ( 'NONE', #165, 0.5749999999999903000 ) ;
#147 = DIRECTION ( 'NONE',  ( 0.0000000000000000000, 0.0000000000000000000, -1.000000000000000000 ) ) ;
#148 = SURFACE_STYLE_USAGE ( .BOTH. , #11 ) ;
#149 = AXIS2_PLACEMENT_3D ( 'NONE', #156, #38, #175 ) ;
#150 = DIRECTION ( 'NONE',  ( 0.7071067811865406900, 0.0000000000000000000, 0.7071067811865542300 ) ) ;
#151 = DIRECTION ( 'NONE',  ( -0.0000000000000000000, -0.0000000000000000000, -1.000000000000000000 ) ) ;
#152 = VERTEX_POINT ( 'NONE', #155 ) ;
#153 = ORIENTED_EDGE ( 'NONE', *, *, #7, .T. ) ;
#154 = DIRECTION ( 'NONE',  ( -0.0000000000000000000, -0.0000000000000000000, 1.000000000000000000 ) ) ;
#155 = CARTESIAN_POINT ( 'NONE',  ( -0.6250000000000000000, 0.0000000000000000000, 5.950000000000007300 ) ) ;
#156 = CARTESIAN_POINT ( 'NONE',  ( 0.0000000000000000000, 0.0000000000000000000, 6.000000000000000900 ) ) ;
#157 = VECTOR ( 'NONE', #130, 39.37007874015748900 ) ;
#158 = CARTESIAN_POINT ( 'NONE',  ( -0.5749999999999903000, 7.347880794884059800E-017, -6.000000000000000900 ) ) ;
#159 = EDGE_CURVE ( 'NONE', #43, #231, #212, .T. ) ;
#160 =( NAMED_UNIT ( * ) PLANE_ANGLE_UNIT ( ) SI_UNIT ( $, .RADIAN. ) );
#161 = ADVANCED_BREP_SHAPE_REPRESENTATION ( 'RPSS20-12', ( #37, #68 ), #179 ) ;
#162 = VERTEX_POINT ( 'NONE', #211 ) ;
#163 = CONICAL_SURFACE ( 'NONE', #80, 0.6250000000000000000, 0.7853981633974387300 ) ;
#164 = ORIENTED_EDGE ( 'NONE', *, *, #159, .T. ) ;
#165 = AXIS2_PLACEMENT_3D ( 'NONE', #213, #96, #227 ) ;
#166 = FACE_OUTER_BOUND ( 'NONE', #35, .T. ) ;
#167 = DIMENSIONAL_EXPONENTS ( 1.000000000000000000, 0.0000000000000000000, 0.0000000000000000000, 0.0000000000000000000, 0.0000000000000000000, 0.0000000000000000000, 0.0000000000000000000 ) ;
#168 = VECTOR ( 'NONE', #228, 39.37007874015748900 ) ;
#169 = EDGE_CURVE ( 'NONE', #195, #196, #146, .T. ) ;
#170 = CARTESIAN_POINT ( 'NONE',  ( 0.0000000000000000000, 0.0000000000000000000, 6.000000000000000900 ) ) ;
#171 =( CONVERSION_BASED_UNIT ( 'INCH', #177 ) LENGTH_UNIT ( ) NAMED_UNIT ( #145 ) );
#172 = SURFACE_STYLE_FILL_AREA ( #128 ) ;
#173 = CARTESIAN_POINT ( 'NONE',  ( 0.0000000000000000000, 0.0000000000000000000, -6.000000000000000900 ) ) ;
#174 = CARTESIAN_POINT ( 'NONE',  ( 0.0000000000000000000, 0.0000000000000000000, 5.950000000000007300 ) ) ;
#175 = DIRECTION ( 'NONE',  ( 1.000000000000000000, 0.0000000000000000000, 0.0000000000000000000 ) ) ;
#176 = DIRECTION ( 'NONE',  ( 0.0000000000000000000, 0.0000000000000000000, 1.000000000000000000 ) ) ;
#177 = LENGTH_MEASURE_WITH_UNIT ( LENGTH_MEASURE( 0.02539999999999999900 ), #32 );
#178 = DIRECTION ( 'NONE',  ( 1.000000000000000000, 0.0000000000000000000, 0.0000000000000000000 ) ) ;
#179 =( GEOMETRIC_REPRESENTATION_CONTEXT ( 3 ) GLOBAL_UNCERTAINTY_ASSIGNED_CONTEXT ( ( #198 ) ) GLOBAL_UNIT_ASSIGNED_CONTEXT ( ( #19, #160, #41 ) ) REPRESENTATION_CONTEXT ( 'NONE', 'WORKASPACE' ) );
#180 = AXIS2_PLACEMENT_3D ( 'NONE', #220, #50, #85 ) ;
#181 = ADVANCED_FACE ( 'NONE', ( #65 ), #16, .T. ) ;
#182 = CARTESIAN_POINT ( 'NONE',  ( 0.0000000000000000000, 0.0000000000000000000, 6.000000000000000900 ) ) ;
#183 = LINE ( 'NONE', #111, #234 ) ;
#184 =( NAMED_UNIT ( * ) SI_UNIT ( $, .STERADIAN. ) SOLID_ANGLE_UNIT ( ) );
#185 = CARTESIAN_POINT ( 'NONE',  ( 0.0000000000000000000, 0.0000000000000000000, -5.949999999999989500 ) ) ;
#186 = CARTESIAN_POINT ( 'NONE',  ( 0.0000000000000000000, 0.0000000000000000000, -5.949999999999989500 ) ) ;
#187 = EDGE_LOOP ( 'NONE', ( #89, #131, #120, #101 ) ) ;
#188 = ORIENTED_EDGE ( 'NONE', *, *, #121, .T. ) ;
#189 = DIRECTION ( 'NONE',  ( 1.000000000000000000, 0.0000000000000000000, 0.0000000000000000000 ) ) ;
#190 = FILL_AREA_STYLE_COLOUR ( '', #140 ) ;
#191 = AXIS2_PLACEMENT_3D ( 'NONE', #10, #147, #30 ) ;
#192 = CYLINDRICAL_SURFACE ( 'NONE', #62, 0.6250000000000000000 ) ;
#193 = ORIENTED_EDGE ( 'NONE', *, *, #74, .F. ) ;
#194 = APPLICATION_CONTEXT ( 'automotive_design' ) ;
#195 = VERTEX_POINT ( 'NONE', #18 ) ;
#196 = VERTEX_POINT ( 'NONE', #158 ) ;
#197 = VECTOR ( 'NONE', #90, 39.37007874015748100 ) ;
#198 = UNCERTAINTY_MEASURE_WITH_UNIT (LENGTH_MEASURE( 1.000000000000000100E-005 ), #19, 'distance_accuracy_value', 'NONE');
#199 = ORIENTED_EDGE ( 'NONE', *, *, #141, .T. ) ;
#200 = PRODUCT_DEFINITION_CONTEXT ( 'detailed design', #194, 'design' ) ;
#201 = AXIS2_PLACEMENT_3D ( 'NONE', #73, #17, #58 ) ;
#202 = ADVANCED_FACE ( 'NONE', ( #119 ), #247, .T. ) ;
#203 = ORIENTED_EDGE ( 'NONE', *, *, #23, .T. ) ;
#204 = ORIENTED_EDGE ( 'NONE', *, *, #127, .T. ) ;
#205 = CIRCLE ( 'NONE', #137, 0.6250000000000000000 ) ;
#206 = DIRECTION ( 'NONE',  ( -1.000000000000000000, 0.0000000000000000000, 0.0000000000000000000 ) ) ;
#207 = AXIS2_PLACEMENT_3D ( 'NONE', #182, #69, #208 ) ;
#208 = DIRECTION ( 'NONE',  ( 1.000000000000000000, 0.0000000000000000000, 0.0000000000000000000 ) ) ;
#209 = DIRECTION ( 'NONE',  ( 0.0000000000000000000, 0.0000000000000000000, -1.000000000000000000 ) ) ;
#210 = DIRECTION ( 'NONE',  ( 1.000000000000000000, 0.0000000000000000000, 0.0000000000000000000 ) ) ;
#211 = CARTESIAN_POINT ( 'NONE',  ( 0.6250000000000000000, 7.654042494670955400E-017, 5.950000000000007300 ) ) ;
#212 = CIRCLE ( 'NONE', #149, 0.5750000000000067300 ) ;
#213 = CARTESIAN_POINT ( 'NONE',  ( 0.0000000000000000000, 0.0000000000000000000, -6.000000000000000900 ) ) ;
#214 = FILL_AREA_STYLE ('',( #190 ) ) ;
#215 = AXIS2_PLACEMENT_3D ( 'NONE', #132, #176, #60 ) ;
#216 = CIRCLE ( 'NONE', #191, 0.6250000000000000000 ) ;
#217 = LINE ( 'NONE', #98, #168 ) ;
#218 = AXIS2_PLACEMENT_3D ( 'NONE', #170, #238, #52 ) ;
#219 = CONICAL_SURFACE ( 'NONE', #218, 0.5750000000000067300, 0.7853981633974497200 ) ;
#220 = CARTESIAN_POINT ( 'NONE',  ( 0.0000000000000000000, 0.0000000000000000000, -5.949999999999989500 ) ) ;
#221 = DIRECTION ( 'NONE',  ( -0.0000000000000000000, -0.0000000000000000000, -1.000000000000000000 ) ) ;
#222 = CARTESIAN_POINT ( 'NONE',  ( -0.6250000000000000000, 0.0000000000000000000, -5.949999999999989500 ) ) ;
#223 = CARTESIAN_POINT ( 'NONE',  ( 0.6250000000000000000, 7.654042494670955400E-017, -5.949999999999989500 ) ) ;
#224 = DIRECTION ( 'NONE',  ( 0.0000000000000000000, 0.0000000000000000000, 1.000000000000000000 ) ) ;
#225 = ORIENTED_EDGE ( 'NONE', *, *, #246, .T. ) ;
#226 = DIRECTION ( 'NONE',  ( -0.0000000000000000000, -0.0000000000000000000, 1.000000000000000000 ) ) ;
#227 = DIRECTION ( 'NONE',  ( 1.000000000000000000, 0.0000000000000000000, 0.0000000000000000000 ) ) ;
#228 = DIRECTION ( 'NONE',  ( -0.7071067811865484600, 0.0000000000000000000, -0.7071067811865464600 ) ) ;
#229 = STYLED_ITEM ( 'NONE', ( #67 ), #37 ) ;
#230 = SURFACE_STYLE_USAGE ( .BOTH. , #100 ) ;
#231 = VERTEX_POINT ( 'NONE', #133 ) ;
#232 = LENGTH_MEASURE_WITH_UNIT ( LENGTH_MEASURE( 0.02539999999999999900 ), #122 );
#233 = PRODUCT ( 'RPSS20-12', 'RPSS20-12', '', ( #63 ) ) ;
#234 = VECTOR ( 'NONE', #88, 39.37007874015748900 ) ;
#235 = STYLED_ITEM ( 'NONE', ( #116 ), #161 ) ;
#236 = ORIENTED_EDGE ( 'NONE', *, *, #169, .T. ) ;
#237 = ORIENTED_EDGE ( 'NONE', *, *, #246, .F. ) ;
#238 = DIRECTION ( 'NONE',  ( 0.0000000000000000000, 0.0000000000000000000, -1.000000000000000000 ) ) ;
#239 = VECTOR ( 'NONE', #150, 39.37007874015748900 ) ;
#240 = UNCERTAINTY_MEASURE_WITH_UNIT (LENGTH_MEASURE( 1.000000000000000100E-005 ), #171, 'distance_accuracy_value', 'NONE');
#241 = PRESENTATION_LAYER_ASSIGNMENT (  '', '', ( #229 ) ) ;
#242 = FILL_AREA_STYLE_COLOUR ( '', #123 ) ;
#243 = CARTESIAN_POINT ( 'NONE',  ( 0.0000000000000000000, 0.0000000000000000000, 6.000000000000000900 ) ) ;
#244 = CLOSED_SHELL ( 'NONE', ( #81, #6, #47, #181, #202, #125, #106, #27 ) ) ;
#245 = DIRECTION ( 'NONE',  ( 1.000000000000000000, 0.0000000000000000000, 0.0000000000000000000 ) ) ;
#246 = EDGE_CURVE ( 'NONE', #43, #152, #217, .T. ) ;
#247 = PLANE ( 'NONE',  #215 ) ;
#248 = CIRCLE ( 'NONE', #112, 0.6250000000000000000 ) ;
#249 = ORIENTED_EDGE ( 'NONE', *, *, #39, .T. ) ;
ENDSEC;
END-ISO-10303-21;
