ISO-10303-21;
HEADER;
FILE_DESCRIPTION (( 'STEP AP214' ),
    '1' );
FILE_NAME ('RPSS20-18.step',
    '2017-08-09T17:49:33',
    ( '' ),
    ( '' ),
    'SwSTEP 2.0',
    'SolidWorks 2017',
    '' );
FILE_SCHEMA (( 'AUTOMOTIVE_DESIGN' ));
ENDSEC;

DATA;
#1 = ADVANCED_FACE ( 'NONE', ( #75 ), #10, .T. ) ;
#2 = LENGTH_MEASURE_WITH_UNIT ( LENGTH_MEASURE( 0.02539999999999999900 ), #89 );
#3 = EDGE_CURVE ( 'NONE', #198, #79, #69, .T. ) ;
#4 = ORIENTED_EDGE ( 'NONE', *, *, #137, .T. ) ;
#5 = PRODUCT ( 'RPSS20-18', 'RPSS20-18', '', ( #193 ) ) ;
#6 = UNCERTAINTY_MEASURE_WITH_UNIT (LENGTH_MEASURE( 1.000000000000000100E-005 ), #151, 'distance_accuracy_value', 'NONE');
#7 = ORIENTED_EDGE ( 'NONE', *, *, #16, .F. ) ;
#8 = DIRECTION ( 'NONE',  ( 1.000000000000000000, 0.0000000000000000000, -0.0000000000000000000 ) ) ;
#9 = STYLED_ITEM ( 'NONE', ( #61 ), #39 ) ;
#10 = CONICAL_SURFACE ( 'NONE', #160, 0.6250000000000000000, 0.7853981633974592700 ) ;
#11 = DIRECTION ( 'NONE',  ( 1.000000000000000000, 0.0000000000000000000, 0.0000000000000000000 ) ) ;
#12 = SURFACE_STYLE_FILL_AREA ( #99 ) ;
#13 = DIRECTION ( 'NONE',  ( -1.000000000000000000, 0.0000000000000000000, 0.0000000000000000000 ) ) ;
#14 = ORIENTED_EDGE ( 'NONE', *, *, #240, .T. ) ;
#15 =( LENGTH_UNIT ( ) NAMED_UNIT ( * ) SI_UNIT ( $, .METRE. ) );
#16 = EDGE_CURVE ( 'NONE', #34, #206, #220, .T. ) ;
#17 =( NAMED_UNIT ( * ) PLANE_ANGLE_UNIT ( ) SI_UNIT ( $, .RADIAN. ) );
#18 = DIRECTION ( 'NONE',  ( 0.0000000000000000000, 0.0000000000000000000, -1.000000000000000000 ) ) ;
#19 = CARTESIAN_POINT ( 'NONE',  ( 0.0000000000000000000, 0.0000000000000000000, 9.000000000000000000 ) ) ;
#20 = SURFACE_STYLE_FILL_AREA ( #180 ) ;
#21 = CARTESIAN_POINT ( 'NONE',  ( -0.5749999999999969600, 0.0000000000000000000, 9.000000000000000000 ) ) ;
#22 = ADVANCED_FACE ( 'NONE', ( #123 ), #239, .F. ) ;
#23 = STYLED_ITEM ( 'NONE', ( #214 ), #30 ) ;
#24 = DIRECTION ( 'NONE',  ( -0.7071067811865552300, 8.659560562355027800E-017, 0.7071067811865398000 ) ) ;
#25 = CIRCLE ( 'NONE', #156, 0.5749999999999969600 ) ;
#26 = ORIENTED_EDGE ( 'NONE', *, *, #128, .T. ) ;
#27 = DIRECTION ( 'NONE',  ( 0.7071067811865398000, 8.659560562354837900E-017, -0.7071067811865552300 ) ) ;
#28 = AXIS2_PLACEMENT_3D ( 'NONE', #95, #132, #8 ) ;
#29 = ORIENTED_EDGE ( 'NONE', *, *, #74, .T. ) ;
#30 = ADVANCED_BREP_SHAPE_REPRESENTATION ( 'RPSS20-18', ( #39, #105 ), #244 ) ;
#31 = VECTOR ( 'NONE', #38, 39.37007874015748100 ) ;
#32 = ORIENTED_EDGE ( 'NONE', *, *, #74, .F. ) ;
#33 = EDGE_CURVE ( 'NONE', #170, #119, #223, .T. ) ;
#34 = VERTEX_POINT ( 'NONE', #164 ) ;
#35 = PRESENTATION_LAYER_ASSIGNMENT (  '', '', ( #23 ) ) ;
#36 = DIRECTION ( 'NONE',  ( -0.0000000000000000000, -0.0000000000000000000, -1.000000000000000000 ) ) ;
#37 = LINE ( 'NONE', #149, #161 ) ;
#38 = DIRECTION ( 'NONE',  ( -0.0000000000000000000, -0.0000000000000000000, -1.000000000000000000 ) ) ;
#39 = MANIFOLD_SOLID_BREP ( 'Chamfer1', #187 ) ;
#40 =( NAMED_UNIT ( * ) PLANE_ANGLE_UNIT ( ) SI_UNIT ( $, .RADIAN. ) );
#41 = EDGE_LOOP ( 'NONE', ( #202, #179, #230, #182 ) ) ;
#42 = PRESENTATION_LAYER_ASSIGNMENT (  '', '', ( #9 ) ) ;
#43 = CARTESIAN_POINT ( 'NONE',  ( 0.0000000000000000000, 0.0000000000000000000, -9.000000000000000000 ) ) ;
#44 = DIMENSIONAL_EXPONENTS ( 1.000000000000000000, 0.0000000000000000000, 0.0000000000000000000, 0.0000000000000000000, 0.0000000000000000000, 0.0000000000000000000, 0.0000000000000000000 ) ;
#45 = CIRCLE ( 'NONE', #83, 0.6250000000000000000 ) ;
#46 = EDGE_CURVE ( 'NONE', #34, #79, #211, .T. ) ;
#47 = FILL_AREA_STYLE_COLOUR ( '', #114 ) ;
#48 = EDGE_LOOP ( 'NONE', ( #4, #225 ) ) ;
#49 = CARTESIAN_POINT ( 'NONE',  ( 0.5749999999999969600, 0.0000000000000000000, -9.000000000000000000 ) ) ;
#50 = MECHANICAL_DESIGN_GEOMETRIC_PRESENTATION_REPRESENTATION (  '', ( #23 ), #64 ) ;
#51 = CARTESIAN_POINT ( 'NONE',  ( 0.0000000000000000000, 0.0000000000000000000, 8.949999999999995700 ) ) ;
#52 = ORIENTED_EDGE ( 'NONE', *, *, #113, .F. ) ;
#53 = MECHANICAL_DESIGN_GEOMETRIC_PRESENTATION_REPRESENTATION (  '', ( #9 ), #68 ) ;
#54 = SHAPE_DEFINITION_REPRESENTATION ( #167, #30 ) ;
#55 = CARTESIAN_POINT ( 'NONE',  ( 0.0000000000000000000, 0.0000000000000000000, 9.000000000000000000 ) ) ;
#56 = VERTEX_POINT ( 'NONE', #49 ) ;
#57 = EDGE_CURVE ( 'NONE', #174, #119, #45, .T. ) ;
#58 = DIRECTION ( 'NONE',  ( 1.000000000000000000, 0.0000000000000000000, 0.0000000000000000000 ) ) ;
#59 = PLANE ( 'NONE',  #203 ) ;
#60 = DIRECTION ( 'NONE',  ( 1.000000000000000000, 0.0000000000000000000, 0.0000000000000000000 ) ) ;
#61 = PRESENTATION_STYLE_ASSIGNMENT (( #199 ) ) ;
#62 = CARTESIAN_POINT ( 'NONE',  ( 0.0000000000000000000, 0.0000000000000000000, -8.949999999999997500 ) ) ;
#63 = ADVANCED_FACE ( 'NONE', ( #189 ), #235, .T. ) ;
#64 =( GEOMETRIC_REPRESENTATION_CONTEXT ( 3 ) GLOBAL_UNCERTAINTY_ASSIGNED_CONTEXT ( ( #232 ) ) GLOBAL_UNIT_ASSIGNED_CONTEXT ( ( #136, #17, #153 ) ) REPRESENTATION_CONTEXT ( 'NONE', 'WORKASPACE' ) );
#65 = LINE ( 'NONE', #191, #162 ) ;
#66 = ORIENTED_EDGE ( 'NONE', *, *, #128, .F. ) ;
#67 = SURFACE_SIDE_STYLE ('',( #20 ) ) ;
#68 =( GEOMETRIC_REPRESENTATION_CONTEXT ( 3 ) GLOBAL_UNCERTAINTY_ASSIGNED_CONTEXT ( ( #215 ) ) GLOBAL_UNIT_ASSIGNED_CONTEXT ( ( #218, #107, #236 ) ) REPRESENTATION_CONTEXT ( 'NONE', 'WORKASPACE' ) );
#69 = CIRCLE ( 'NONE', #173, 0.6250000000000000000 ) ;
#70 = CARTESIAN_POINT ( 'NONE',  ( 0.0000000000000000000, 0.0000000000000000000, -8.949999999999997500 ) ) ;
#71 = CIRCLE ( 'NONE', #221, 0.5749999999999969600 ) ;
#72 = EDGE_LOOP ( 'NONE', ( #7, #194, #101, #82 ) ) ;
#73 = DIRECTION ( 'NONE',  ( 1.000000000000000000, 0.0000000000000000000, 0.0000000000000000000 ) ) ;
#74 = EDGE_CURVE ( 'NONE', #56, #174, #37, .T. ) ;
#75 = FACE_OUTER_BOUND ( 'NONE', #217, .T. ) ;
#76 = LENGTH_MEASURE_WITH_UNIT ( LENGTH_MEASURE( 0.02539999999999999900 ), #15 );
#77 = DIRECTION ( 'NONE',  ( 0.7071067811865552300, 0.0000000000000000000, 0.7071067811865398000 ) ) ;
#78 = CIRCLE ( 'NONE', #166, 0.5749999999999969600 ) ;
#79 = VERTEX_POINT ( 'NONE', #188 ) ;
#80 = APPLICATION_CONTEXT ( 'automotive_design' ) ;
#81 = DIRECTION ( 'NONE',  ( -0.0000000000000000000, -0.0000000000000000000, 1.000000000000000000 ) ) ;
#82 = ORIENTED_EDGE ( 'NONE', *, *, #240, .F. ) ;
#83 = AXIS2_PLACEMENT_3D ( 'NONE', #91, #219, #11 ) ;
#84 = DIRECTION ( 'NONE',  ( 1.000000000000000000, 0.0000000000000000000, -0.0000000000000000000 ) ) ;
#85 = DIRECTION ( 'NONE',  ( 1.000000000000000000, 0.0000000000000000000, 0.0000000000000000000 ) ) ;
#86 = ADVANCED_FACE ( 'NONE', ( #184 ), #178, .T. ) ;
#87 = FACE_OUTER_BOUND ( 'NONE', #152, .T. ) ;
#88 = EDGE_CURVE ( 'NONE', #79, #174, #143, .T. ) ;
#89 =( LENGTH_UNIT ( ) NAMED_UNIT ( * ) SI_UNIT ( $, .METRE. ) );
#90 = EDGE_LOOP ( 'NONE', ( #96, #129 ) ) ;
#91 = CARTESIAN_POINT ( 'NONE',  ( 0.0000000000000000000, 0.0000000000000000000, -8.949999999999997500 ) ) ;
#92 = VECTOR ( 'NONE', #36, 39.37007874015748100 ) ;
#93 = DIRECTION ( 'NONE',  ( 1.000000000000000000, 0.0000000000000000000, 0.0000000000000000000 ) ) ;
#94 = CARTESIAN_POINT ( 'NONE',  ( 0.5749999999999969600, 7.041719095097243200E-017, 9.000000000000000000 ) ) ;
#95 = CARTESIAN_POINT ( 'NONE',  ( 0.0000000000000000000, 0.0000000000000000000, -9.000000000000000000 ) ) ;
#96 = ORIENTED_EDGE ( 'NONE', *, *, #148, .T. ) ;
#97 = AXIS2_PLACEMENT_3D ( 'NONE', #55, #190, #13 ) ;
#98 = CARTESIAN_POINT ( 'NONE',  ( 0.0000000000000000000, 0.0000000000000000000, 9.000000000000000000 ) ) ;
#99 = FILL_AREA_STYLE ('',( #205 ) ) ;
#100 = EDGE_CURVE ( 'NONE', #198, #119, #135, .T. ) ;
#101 = ORIENTED_EDGE ( 'NONE', *, *, #3, .F. ) ;
#102 = CARTESIAN_POINT ( 'NONE',  ( -0.6250000000000000000, 0.0000000000000000000, 8.949999999999995700 ) ) ;
#103 = ADVANCED_FACE ( 'NONE', ( #87 ), #126, .T. ) ;
#104 = DIRECTION ( 'NONE',  ( -0.0000000000000000000, -0.0000000000000000000, -1.000000000000000000 ) ) ;
#105 = AXIS2_PLACEMENT_3D ( 'NONE', #227, #172, #58 ) ;
#106 = ORIENTED_EDGE ( 'NONE', *, *, #113, .T. ) ;
#107 =( NAMED_UNIT ( * ) PLANE_ANGLE_UNIT ( ) SI_UNIT ( $, .RADIAN. ) );
#108 = AXIS2_PLACEMENT_3D ( 'NONE', #98, #204, #168 ) ;
#109 = LENGTH_MEASURE_WITH_UNIT ( LENGTH_MEASURE( 0.02539999999999999900 ), #246 );
#110 = DIRECTION ( 'NONE',  ( -0.0000000000000000000, -0.0000000000000000000, 1.000000000000000000 ) ) ;
#111 = EDGE_LOOP ( 'NONE', ( #158, #242, #29, #66 ) ) ;
#112 = DIRECTION ( 'NONE',  ( 0.0000000000000000000, 0.0000000000000000000, 1.000000000000000000 ) ) ;
#113 = EDGE_CURVE ( 'NONE', #79, #198, #169, .T. ) ;
#114 = COLOUR_RGB ( '',0.7921568627450980000, 0.8196078431372548800, 0.9333333333333333500 ) ;
#115 = PRODUCT_DEFINITION ( 'UNKNOWN', '', #130, #243 ) ;
#116 = CARTESIAN_POINT ( 'NONE',  ( -0.6250000000000000000, 0.0000000000000000000, 9.000000000000000000 ) ) ;
#117 = CYLINDRICAL_SURFACE ( 'NONE', #233, 0.6250000000000000000 ) ;
#118 = DIRECTION ( 'NONE',  ( -0.7071067811865398000, 0.0000000000000000000, -0.7071067811865552300 ) ) ;
#119 = VERTEX_POINT ( 'NONE', #245 ) ;
#120 = SURFACE_STYLE_USAGE ( .BOTH. , #229 ) ;
#121 = CARTESIAN_POINT ( 'NONE',  ( 0.0000000000000000000, 0.0000000000000000000, 9.000000000000000000 ) ) ;
#122 = AXIS2_PLACEMENT_3D ( 'NONE', #200, #159, #181 ) ;
#123 = FACE_OUTER_BOUND ( 'NONE', #90, .T. ) ;
#124 = CARTESIAN_POINT ( 'NONE',  ( 0.6250000000000000000, 7.654042494670957900E-017, -8.949999999999997500 ) ) ;
#125 = COLOUR_RGB ( '',0.7921568627450980000, 0.8196078431372548800, 0.9333333333333333500 ) ;
#126 = CONICAL_SURFACE ( 'NONE', #97, 0.5749999999999969600, 0.7853981633974374000 ) ;
#127 = ORIENTED_EDGE ( 'NONE', *, *, #88, .F. ) ;
#128 = EDGE_CURVE ( 'NONE', #119, #174, #131, .T. ) ;
#129 = ORIENTED_EDGE ( 'NONE', *, *, #228, .T. ) ;
#130 = PRODUCT_DEFINITION_FORMATION_WITH_SPECIFIED_SOURCE ( 'ANY', '', #5, .NOT_KNOWN. ) ;
#131 = CIRCLE ( 'NONE', #146, 0.6250000000000000000 ) ;
#132 = DIRECTION ( 'NONE',  ( 0.0000000000000000000, 0.0000000000000000000, 1.000000000000000000 ) ) ;
#133 = ORIENTED_EDGE ( 'NONE', *, *, #137, .F. ) ;
#134 = AXIS2_PLACEMENT_3D ( 'NONE', #138, #18, #154 ) ;
#135 = LINE ( 'NONE', #116, #92 ) ;
#136 =( CONVERSION_BASED_UNIT ( 'INCH', #109 ) LENGTH_UNIT ( ) NAMED_UNIT ( #177 ) );
#137 = EDGE_CURVE ( 'NONE', #206, #34, #25, .T. ) ;
#138 = CARTESIAN_POINT ( 'NONE',  ( 0.0000000000000000000, 0.0000000000000000000, 8.949999999999995700 ) ) ;
#139 = ORIENTED_EDGE ( 'NONE', *, *, #57, .F. ) ;
#140 = DIRECTION ( 'NONE',  ( 1.000000000000000000, 0.0000000000000000000, 0.0000000000000000000 ) ) ;
#141 = DIRECTION ( 'NONE',  ( -0.0000000000000000000, -0.0000000000000000000, 1.000000000000000000 ) ) ;
#142 = PRODUCT_RELATED_PRODUCT_CATEGORY ( 'part', '', ( #5 ) ) ;
#143 = LINE ( 'NONE', #150, #31 ) ;
#144 = EDGE_LOOP ( 'NONE', ( #127, #106, #237, #26 ) ) ;
#145 = DIRECTION ( 'NONE',  ( 1.000000000000000000, 0.0000000000000000000, 0.0000000000000000000 ) ) ;
#146 = AXIS2_PLACEMENT_3D ( 'NONE', #195, #81, #209 ) ;
#147 = ORIENTED_EDGE ( 'NONE', *, *, #46, .F. ) ;
#148 = EDGE_CURVE ( 'NONE', #56, #170, #78, .T. ) ;
#149 = CARTESIAN_POINT ( 'NONE',  ( 0.6250000000000000000, 0.0000000000000000000, -8.949999999999997500 ) ) ;
#150 = CARTESIAN_POINT ( 'NONE',  ( 0.6250000000000000000, 7.654042494670957900E-017, 9.000000000000000000 ) ) ;
#151 =( CONVERSION_BASED_UNIT ( 'INCH', #76 ) LENGTH_UNIT ( ) NAMED_UNIT ( #213 ) );
#152 = EDGE_LOOP ( 'NONE', ( #147, #133, #14, #52 ) ) ;
#153 =( NAMED_UNIT ( * ) SI_UNIT ( $, .STERADIAN. ) SOLID_ANGLE_UNIT ( ) );
#154 = DIRECTION ( 'NONE',  ( 1.000000000000000000, 0.0000000000000000000, 0.0000000000000000000 ) ) ;
#155 = CARTESIAN_POINT ( 'NONE',  ( 0.0000000000000000000, 0.0000000000000000000, 9.000000000000000000 ) ) ;
#156 = AXIS2_PLACEMENT_3D ( 'NONE', #121, #249, #140 ) ;
#157 = ADVANCED_FACE ( 'NONE', ( #226 ), #59, .T. ) ;
#158 = ORIENTED_EDGE ( 'NONE', *, *, #33, .F. ) ;
#159 = DIRECTION ( 'NONE',  ( -0.0000000000000000000, -0.0000000000000000000, -1.000000000000000000 ) ) ;
#160 = AXIS2_PLACEMENT_3D ( 'NONE', #70, #110, #93 ) ;
#161 = VECTOR ( 'NONE', #77, 39.37007874015748100 ) ;
#162 = VECTOR ( 'NONE', #118, 39.37007874015748100 ) ;
#163 = ORIENTED_EDGE ( 'NONE', *, *, #228, .F. ) ;
#164 = CARTESIAN_POINT ( 'NONE',  ( 0.5749999999999969600, 7.347880794884099300E-017, 9.000000000000000000 ) ) ;
#165 = VECTOR ( 'NONE', #24, 39.37007874015748100 ) ;
#166 = AXIS2_PLACEMENT_3D ( 'NONE', #43, #175, #60 ) ;
#167 = PRODUCT_DEFINITION_SHAPE ( 'NONE', 'NONE',  #115 ) ;
#168 = DIRECTION ( 'NONE',  ( -1.000000000000000000, 0.0000000000000000000, 0.0000000000000000000 ) ) ;
#169 = CIRCLE ( 'NONE', #134, 0.6250000000000000000 ) ;
#170 = VERTEX_POINT ( 'NONE', #231 ) ;
#171 =( NAMED_UNIT ( * ) SI_UNIT ( $, .STERADIAN. ) SOLID_ANGLE_UNIT ( ) );
#172 = DIRECTION ( 'NONE',  ( 0.0000000000000000000, 0.0000000000000000000, 1.000000000000000000 ) ) ;
#173 = AXIS2_PLACEMENT_3D ( 'NONE', #51, #185, #73 ) ;
#174 = VERTEX_POINT ( 'NONE', #124 ) ;
#175 = DIRECTION ( 'NONE',  ( -0.0000000000000000000, -0.0000000000000000000, -1.000000000000000000 ) ) ;
#176 = ADVANCED_FACE ( 'NONE', ( #216 ), #117, .T. ) ;
#177 = DIMENSIONAL_EXPONENTS ( 1.000000000000000000, 0.0000000000000000000, 0.0000000000000000000, 0.0000000000000000000, 0.0000000000000000000, 0.0000000000000000000, 0.0000000000000000000 ) ;
#178 = CONICAL_SURFACE ( 'NONE', #108, 0.5749999999999969600, 0.7853981633974374000 ) ;
#179 = ORIENTED_EDGE ( 'NONE', *, *, #88, .T. ) ;
#180 = FILL_AREA_STYLE ('',( #47 ) ) ;
#181 = DIRECTION ( 'NONE',  ( -1.000000000000000000, 0.0000000000000000000, 0.0000000000000000000 ) ) ;
#182 = ORIENTED_EDGE ( 'NONE', *, *, #100, .F. ) ;
#183 = CONICAL_SURFACE ( 'NONE', #197, 0.6250000000000000000, 0.7853981633974592700 ) ;
#184 = FACE_OUTER_BOUND ( 'NONE', #72, .T. ) ;
#185 = DIRECTION ( 'NONE',  ( 0.0000000000000000000, 0.0000000000000000000, -1.000000000000000000 ) ) ;
#186 = AXIS2_PLACEMENT_3D ( 'NONE', #224, #112, #241 ) ;
#187 = CLOSED_SHELL ( 'NONE', ( #86, #1, #176, #63, #157, #22, #234, #103 ) ) ;
#188 = CARTESIAN_POINT ( 'NONE',  ( 0.6250000000000000000, 7.654042494670957900E-017, 8.949999999999995700 ) ) ;
#189 = FACE_OUTER_BOUND ( 'NONE', #144, .T. ) ;
#190 = DIRECTION ( 'NONE',  ( 0.0000000000000000000, 0.0000000000000000000, -1.000000000000000000 ) ) ;
#191 = CARTESIAN_POINT ( 'NONE',  ( -0.5749999999999969600, 0.0000000000000000000, 9.000000000000000000 ) ) ;
#192 = APPLICATION_PROTOCOL_DEFINITION ( 'draft international standard', 'automotive_design', 1998, #207 ) ;
#193 = PRODUCT_CONTEXT ( 'NONE', #207, 'mechanical' ) ;
#194 = ORIENTED_EDGE ( 'NONE', *, *, #46, .T. ) ;
#195 = CARTESIAN_POINT ( 'NONE',  ( 0.0000000000000000000, 0.0000000000000000000, -8.949999999999997500 ) ) ;
#196 = DIRECTION ( 'NONE',  ( 0.0000000000000000000, 0.0000000000000000000, 1.000000000000000000 ) ) ;
#197 = AXIS2_PLACEMENT_3D ( 'NONE', #62, #141, #85 ) ;
#198 = VERTEX_POINT ( 'NONE', #102 ) ;
#199 = SURFACE_STYLE_USAGE ( .BOTH. , #67 ) ;
#200 = CARTESIAN_POINT ( 'NONE',  ( 0.0000000000000000000, 0.0000000000000000000, 9.000000000000000000 ) ) ;
#201 = CARTESIAN_POINT ( 'NONE',  ( -0.6250000000000000000, 7.654042494670957900E-017, -8.949999999999997500 ) ) ;
#202 = ORIENTED_EDGE ( 'NONE', *, *, #3, .T. ) ;
#203 = AXIS2_PLACEMENT_3D ( 'NONE', #155, #196, #84 ) ;
#204 = DIRECTION ( 'NONE',  ( 0.0000000000000000000, 0.0000000000000000000, -1.000000000000000000 ) ) ;
#205 = FILL_AREA_STYLE_COLOUR ( '', #125 ) ;
#206 = VERTEX_POINT ( 'NONE', #21 ) ;
#207 = APPLICATION_CONTEXT ( 'automotive_design' ) ;
#208 = APPLICATION_PROTOCOL_DEFINITION ( 'draft international standard', 'automotive_design', 1998, #80 ) ;
#209 = DIRECTION ( 'NONE',  ( 1.000000000000000000, 0.0000000000000000000, 0.0000000000000000000 ) ) ;
#210 = DIRECTION ( 'NONE',  ( -0.0000000000000000000, -0.0000000000000000000, -1.000000000000000000 ) ) ;
#211 = LINE ( 'NONE', #94, #238 ) ;
#212 = CARTESIAN_POINT ( 'NONE',  ( 0.0000000000000000000, 0.0000000000000000000, -9.000000000000000000 ) ) ;
#213 = DIMENSIONAL_EXPONENTS ( 1.000000000000000000, 0.0000000000000000000, 0.0000000000000000000, 0.0000000000000000000, 0.0000000000000000000, 0.0000000000000000000, 0.0000000000000000000 ) ;
#214 = PRESENTATION_STYLE_ASSIGNMENT (( #120 ) ) ;
#215 = UNCERTAINTY_MEASURE_WITH_UNIT (LENGTH_MEASURE( 1.000000000000000100E-005 ), #218, 'distance_accuracy_value', 'NONE');
#216 = FACE_OUTER_BOUND ( 'NONE', #41, .T. ) ;
#217 = EDGE_LOOP ( 'NONE', ( #163, #247, #139, #32 ) ) ;
#218 =( CONVERSION_BASED_UNIT ( 'INCH', #2 ) LENGTH_UNIT ( ) NAMED_UNIT ( #44 ) );
#219 = DIRECTION ( 'NONE',  ( -0.0000000000000000000, -0.0000000000000000000, 1.000000000000000000 ) ) ;
#220 = CIRCLE ( 'NONE', #186, 0.5749999999999969600 ) ;
#221 = AXIS2_PLACEMENT_3D ( 'NONE', #212, #104, #145 ) ;
#222 = FACE_OUTER_BOUND ( 'NONE', #111, .T. ) ;
#223 = LINE ( 'NONE', #201, #165 ) ;
#224 = CARTESIAN_POINT ( 'NONE',  ( 0.0000000000000000000, 0.0000000000000000000, 9.000000000000000000 ) ) ;
#225 = ORIENTED_EDGE ( 'NONE', *, *, #16, .T. ) ;
#226 = FACE_OUTER_BOUND ( 'NONE', #48, .T. ) ;
#227 = CARTESIAN_POINT ( 'NONE',  ( 0.0000000000000000000, 0.0000000000000000000, 0.0000000000000000000 ) ) ;
#228 = EDGE_CURVE ( 'NONE', #170, #56, #71, .T. ) ;
#229 = SURFACE_SIDE_STYLE ('',( #12 ) ) ;
#230 = ORIENTED_EDGE ( 'NONE', *, *, #57, .T. ) ;
#231 = CARTESIAN_POINT ( 'NONE',  ( -0.5749999999999969600, 7.347880794884099300E-017, -9.000000000000000000 ) ) ;
#232 = UNCERTAINTY_MEASURE_WITH_UNIT (LENGTH_MEASURE( 1.000000000000000100E-005 ), #136, 'distance_accuracy_value', 'NONE');
#233 = AXIS2_PLACEMENT_3D ( 'NONE', #19, #210, #248 ) ;
#234 = ADVANCED_FACE ( 'NONE', ( #222 ), #183, .T. ) ;
#235 = CYLINDRICAL_SURFACE ( 'NONE', #122, 0.6250000000000000000 ) ;
#236 =( NAMED_UNIT ( * ) SI_UNIT ( $, .STERADIAN. ) SOLID_ANGLE_UNIT ( ) );
#237 = ORIENTED_EDGE ( 'NONE', *, *, #100, .T. ) ;
#238 = VECTOR ( 'NONE', #27, 39.37007874015748100 ) ;
#239 = PLANE ( 'NONE',  #28 ) ;
#240 = EDGE_CURVE ( 'NONE', #206, #198, #65, .T. ) ;
#241 = DIRECTION ( 'NONE',  ( 1.000000000000000000, 0.0000000000000000000, 0.0000000000000000000 ) ) ;
#242 = ORIENTED_EDGE ( 'NONE', *, *, #148, .F. ) ;
#243 = PRODUCT_DEFINITION_CONTEXT ( 'detailed design', #80, 'design' ) ;
#244 =( GEOMETRIC_REPRESENTATION_CONTEXT ( 3 ) GLOBAL_UNCERTAINTY_ASSIGNED_CONTEXT ( ( #6 ) ) GLOBAL_UNIT_ASSIGNED_CONTEXT ( ( #151, #40, #171 ) ) REPRESENTATION_CONTEXT ( 'NONE', 'WORKASPACE' ) );
#245 = CARTESIAN_POINT ( 'NONE',  ( -0.6250000000000000000, 0.0000000000000000000, -8.949999999999997500 ) ) ;
#246 =( LENGTH_UNIT ( ) NAMED_UNIT ( * ) SI_UNIT ( $, .METRE. ) );
#247 = ORIENTED_EDGE ( 'NONE', *, *, #33, .T. ) ;
#248 = DIRECTION ( 'NONE',  ( -1.000000000000000000, 0.0000000000000000000, 0.0000000000000000000 ) ) ;
#249 = DIRECTION ( 'NONE',  ( 0.0000000000000000000, 0.0000000000000000000, 1.000000000000000000 ) ) ;
ENDSEC;
END-ISO-10303-21;
