ISO-10303-21;
HEADER;
FILE_DESCRIPTION (( 'STEP AP214' ),
    '1' );
FILE_NAME ('RPSS20-24.step',
    '2017-08-09T17:49:49',
    ( '' ),
    ( '' ),
    'SwSTEP 2.0',
    'SolidWorks 2017',
    '' );
FILE_SCHEMA (( 'AUTOMOTIVE_DESIGN' ));
ENDSEC;

DATA;
#1 = ORIENTED_EDGE ( 'NONE', *, *, #108, .F. ) ;
#2 = EDGE_CURVE ( 'NONE', #23, #73, #201, .T. ) ;
#3 = ORIENTED_EDGE ( 'NONE', *, *, #76, .T. ) ;
#4 = ORIENTED_EDGE ( 'NONE', *, *, #96, .T. ) ;
#5 =( NAMED_UNIT ( * ) SI_UNIT ( $, .STERADIAN. ) SOLID_ANGLE_UNIT ( ) );
#6 = CYLINDRICAL_SURFACE ( 'NONE', #246, 0.6250000000000000000 ) ;
#7 = DIRECTION ( 'NONE',  ( 0.0000000000000000000, 0.0000000000000000000, 1.000000000000000000 ) ) ;
#8 = LENGTH_MEASURE_WITH_UNIT ( LENGTH_MEASURE( 0.02539999999999999900 ), #125 );
#9 = DIRECTION ( 'NONE',  ( -0.0000000000000000000, -0.0000000000000000000, -1.000000000000000000 ) ) ;
#10 = ORIENTED_EDGE ( 'NONE', *, *, #41, .F. ) ;
#11 = CARTESIAN_POINT ( 'NONE',  ( 0.0000000000000000000, 0.0000000000000000000, -11.94999999999997400 ) ) ;
#12 = ORIENTED_EDGE ( 'NONE', *, *, #2, .T. ) ;
#13 = AXIS2_PLACEMENT_3D ( 'NONE', #147, #168, #200 ) ;
#14 = ORIENTED_EDGE ( 'NONE', *, *, #41, .T. ) ;
#15 = DIRECTION ( 'NONE',  ( 1.000000000000000000, 0.0000000000000000000, 0.0000000000000000000 ) ) ;
#16 = CARTESIAN_POINT ( 'NONE',  ( 0.0000000000000000000, 0.0000000000000000000, 12.00000000000000200 ) ) ;
#17 = SURFACE_STYLE_USAGE ( .BOTH. , #133 ) ;
#18 = LENGTH_MEASURE_WITH_UNIT ( LENGTH_MEASURE( 0.02539999999999999900 ), #88 );
#19 = ORIENTED_EDGE ( 'NONE', *, *, #20, .T. ) ;
#20 = EDGE_CURVE ( 'NONE', #154, #73, #56, .T. ) ;
#21 = CIRCLE ( 'NONE', #232, 0.5749999999999772000 ) ;
#22 = CARTESIAN_POINT ( 'NONE',  ( 0.0000000000000000000, 0.0000000000000000000, 11.95000000000001400 ) ) ;
#23 = VERTEX_POINT ( 'NONE', #211 ) ;
#24 = AXIS2_PLACEMENT_3D ( 'NONE', #69, #7, #141 ) ;
#25 = LINE ( 'NONE', #49, #134 ) ;
#26 = CARTESIAN_POINT ( 'NONE',  ( -0.5750000000000121700, 0.0000000000000000000, 12.00000000000000200 ) ) ;
#27 = APPLICATION_PROTOCOL_DEFINITION ( 'draft international standard', 'automotive_design', 1998, #44 ) ;
#28 = PRODUCT_CONTEXT ( 'NONE', #44, 'mechanical' ) ;
#29 = ORIENTED_EDGE ( 'NONE', *, *, #212, .T. ) ;
#30 = DIRECTION ( 'NONE',  ( 1.000000000000000000, 0.0000000000000000000, 0.0000000000000000000 ) ) ;
#31 = DIRECTION ( 'NONE',  ( 0.0000000000000000000, 0.0000000000000000000, 1.000000000000000000 ) ) ;
#32 = CIRCLE ( 'NONE', #180, 0.6250000000000000000 ) ;
#33 = EDGE_CURVE ( 'NONE', #110, #154, #213, .T. ) ;
#34 = ADVANCED_FACE ( 'NONE', ( #249 ), #128, .T. ) ;
#35 = PRODUCT_DEFINITION ( 'UNKNOWN', '', #45, #74 ) ;
#36 = CARTESIAN_POINT ( 'NONE',  ( 0.6250000000000000000, 7.654042494670955400E-017, 11.95000000000001400 ) ) ;
#37 =( CONVERSION_BASED_UNIT ( 'INCH', #177 ) LENGTH_UNIT ( ) NAMED_UNIT ( #164 ) );
#38 = DIRECTION ( 'NONE',  ( 1.000000000000000000, 0.0000000000000000000, 0.0000000000000000000 ) ) ;
#39 = FACE_OUTER_BOUND ( 'NONE', #99, .T. ) ;
#40 = CARTESIAN_POINT ( 'NONE',  ( 0.0000000000000000000, 0.0000000000000000000, -11.94999999999997400 ) ) ;
#41 = EDGE_CURVE ( 'NONE', #120, #248, #175, .T. ) ;
#42 = PRESENTATION_STYLE_ASSIGNMENT (( #17 ) ) ;
#43 = ORIENTED_EDGE ( 'NONE', *, *, #20, .F. ) ;
#44 = APPLICATION_CONTEXT ( 'automotive_design' ) ;
#45 = PRODUCT_DEFINITION_FORMATION_WITH_SPECIFIED_SOURCE ( 'ANY', '', #111, .NOT_KNOWN. ) ;
#46 = CIRCLE ( 'NONE', #130, 0.6250000000000000000 ) ;
#47 = APPLICATION_PROTOCOL_DEFINITION ( 'draft international standard', 'automotive_design', 1998, #159 ) ;
#48 = DIRECTION ( 'NONE',  ( 1.000000000000000000, 0.0000000000000000000, 0.0000000000000000000 ) ) ;
#49 = CARTESIAN_POINT ( 'NONE',  ( 0.6250000000000000000, 7.654042494670955400E-017, 12.00000000000000200 ) ) ;
#50 = SURFACE_STYLE_FILL_AREA ( #178 ) ;
#51 = ADVANCED_FACE ( 'NONE', ( #179 ), #221, .T. ) ;
#52 = AXIS2_PLACEMENT_3D ( 'NONE', #57, #114, #242 ) ;
#53 = DIMENSIONAL_EXPONENTS ( 1.000000000000000000, 0.0000000000000000000, 0.0000000000000000000, 0.0000000000000000000, 0.0000000000000000000, 0.0000000000000000000, 0.0000000000000000000 ) ;
#54 = ORIENTED_EDGE ( 'NONE', *, *, #228, .T. ) ;
#55 = CARTESIAN_POINT ( 'NONE',  ( -0.6250000000000000000, 0.0000000000000000000, 11.95000000000001400 ) ) ;
#56 = CIRCLE ( 'NONE', #135, 0.6250000000000000000 ) ;
#57 = CARTESIAN_POINT ( 'NONE',  ( 0.0000000000000000000, 0.0000000000000000000, -12.00000000000000200 ) ) ;
#58 =( NAMED_UNIT ( * ) SI_UNIT ( $, .STERADIAN. ) SOLID_ANGLE_UNIT ( ) );
#59 = SHAPE_DEFINITION_REPRESENTATION ( #176, #160 ) ;
#60 = EDGE_CURVE ( 'NONE', #196, #154, #25, .T. ) ;
#61 = CLOSED_SHELL ( 'NONE', ( #129, #51, #222, #109, #197, #181, #34, #143 ) ) ;
#62 = ORIENTED_EDGE ( 'NONE', *, *, #212, .F. ) ;
#63 = EDGE_LOOP ( 'NONE', ( #29, #191, #19, #102 ) ) ;
#64 = PRODUCT_RELATED_PRODUCT_CATEGORY ( 'part', '', ( #111 ) ) ;
#65 = CARTESIAN_POINT ( 'NONE',  ( 0.6250000000000000000, 0.0000000000000000000, -11.94999999999997400 ) ) ;
#66 = ORIENTED_EDGE ( 'NONE', *, *, #124, .F. ) ;
#67 = EDGE_LOOP ( 'NONE', ( #205, #12, #43, #162 ) ) ;
#68 = STYLED_ITEM ( 'NONE', ( #42 ), #209 ) ;
#69 = CARTESIAN_POINT ( 'NONE',  ( 0.0000000000000000000, 0.0000000000000000000, 0.0000000000000000000 ) ) ;
#70 = EDGE_LOOP ( 'NONE', ( #104, #210, #3, #4 ) ) ;
#71 = SURFACE_SIDE_STYLE ('',( #50 ) ) ;
#72 = CARTESIAN_POINT ( 'NONE',  ( -0.6250000000000000000, 0.0000000000000000000, 12.00000000000000200 ) ) ;
#73 = VERTEX_POINT ( 'NONE', #183 ) ;
#74 = PRODUCT_DEFINITION_CONTEXT ( 'detailed design', #159, 'design' ) ;
#75 = FACE_OUTER_BOUND ( 'NONE', #70, .T. ) ;
#76 = EDGE_CURVE ( 'NONE', #112, #73, #84, .T. ) ;
#77 = DIRECTION ( 'NONE',  ( 1.000000000000000000, 0.0000000000000000000, 0.0000000000000000000 ) ) ;
#78 = ORIENTED_EDGE ( 'NONE', *, *, #2, .F. ) ;
#79 = DIRECTION ( 'NONE',  ( 0.0000000000000000000, 0.0000000000000000000, -1.000000000000000000 ) ) ;
#80 = DIRECTION ( 'NONE',  ( 0.0000000000000000000, 0.0000000000000000000, 1.000000000000000000 ) ) ;
#81 = CIRCLE ( 'NONE', #189, 0.6250000000000000000 ) ;
#82 = DIRECTION ( 'NONE',  ( -0.0000000000000000000, -0.0000000000000000000, 1.000000000000000000 ) ) ;
#83 = AXIS2_PLACEMENT_3D ( 'NONE', #16, #80, #204 ) ;
#84 = LINE ( 'NONE', #72, #171 ) ;
#85 = EDGE_CURVE ( 'NONE', #196, #112, #32, .T. ) ;
#86 = CARTESIAN_POINT ( 'NONE',  ( 0.0000000000000000000, 0.0000000000000000000, 11.95000000000001400 ) ) ;
#87 = DIRECTION ( 'NONE',  ( -0.0000000000000000000, -0.0000000000000000000, -1.000000000000000000 ) ) ;
#88 =( LENGTH_UNIT ( ) NAMED_UNIT ( * ) SI_UNIT ( $, .METRE. ) );
#89 = DIMENSIONAL_EXPONENTS ( 1.000000000000000000, 0.0000000000000000000, 0.0000000000000000000, 0.0000000000000000000, 0.0000000000000000000, 0.0000000000000000000, 0.0000000000000000000 ) ;
#90 = PRESENTATION_LAYER_ASSIGNMENT (  '', '', ( #68 ) ) ;
#91 = CONICAL_SURFACE ( 'NONE', #13, 0.5750000000000121700, 0.7853981633974606000 ) ;
#92 = CARTESIAN_POINT ( 'NONE',  ( 0.0000000000000000000, 0.0000000000000000000, 12.00000000000000200 ) ) ;
#93 = CYLINDRICAL_SURFACE ( 'NONE', #165, 0.6250000000000000000 ) ;
#94 = CARTESIAN_POINT ( 'NONE',  ( 0.6250000000000000000, 7.654042494670955400E-017, -11.94999999999997400 ) ) ;
#95 = CARTESIAN_POINT ( 'NONE',  ( -0.5750000000000121700, 0.0000000000000000000, 12.00000000000000200 ) ) ;
#96 = EDGE_CURVE ( 'NONE', #73, #154, #81, .T. ) ;
#97 = DIRECTION ( 'NONE',  ( -0.0000000000000000000, -0.0000000000000000000, -1.000000000000000000 ) ) ;
#98 = SURFACE_STYLE_FILL_AREA ( #244 ) ;
#99 = EDGE_LOOP ( 'NONE', ( #166, #14 ) ) ;
#100 = CIRCLE ( 'NONE', #152, 0.5749999999999772000 ) ;
#101 = DIRECTION ( 'NONE',  ( 0.7071067811865252600, 0.0000000000000000000, 0.7071067811865696700 ) ) ;
#102 = ORIENTED_EDGE ( 'NONE', *, *, #76, .F. ) ;
#103 = DIRECTION ( 'NONE',  ( 1.000000000000000000, 0.0000000000000000000, 0.0000000000000000000 ) ) ;
#104 = ORIENTED_EDGE ( 'NONE', *, *, #60, .F. ) ;
#105 = MECHANICAL_DESIGN_GEOMETRIC_PRESENTATION_REPRESENTATION (  '', ( #68 ), #119 ) ;
#106 =( NAMED_UNIT ( * ) PLANE_ANGLE_UNIT ( ) SI_UNIT ( $, .RADIAN. ) );
#107 = ORIENTED_EDGE ( 'NONE', *, *, #124, .T. ) ;
#108 = EDGE_CURVE ( 'NONE', #248, #120, #123, .T. ) ;
#109 = ADVANCED_FACE ( 'NONE', ( #75 ), #6, .T. ) ;
#110 = VERTEX_POINT ( 'NONE', #167 ) ;
#111 = PRODUCT ( 'RPSS20-24', 'RPSS20-24', '', ( #28 ) ) ;
#112 = VERTEX_POINT ( 'NONE', #55 ) ;
#113 = DIRECTION ( 'NONE',  ( -1.000000000000000000, 0.0000000000000000000, 0.0000000000000000000 ) ) ;
#114 = DIRECTION ( 'NONE',  ( 0.0000000000000000000, 0.0000000000000000000, 1.000000000000000000 ) ) ;
#115 = FILL_AREA_STYLE_COLOUR ( '', #139 ) ;
#116 = ORIENTED_EDGE ( 'NONE', *, *, #195, .F. ) ;
#117 = ORIENTED_EDGE ( 'NONE', *, *, #33, .T. ) ;
#118 = CARTESIAN_POINT ( 'NONE',  ( 0.0000000000000000000, 0.0000000000000000000, 12.00000000000000200 ) ) ;
#119 =( GEOMETRIC_REPRESENTATION_CONTEXT ( 3 ) GLOBAL_UNCERTAINTY_ASSIGNED_CONTEXT ( ( #137 ) ) GLOBAL_UNIT_ASSIGNED_CONTEXT ( ( #37, #170, #58 ) ) REPRESENTATION_CONTEXT ( 'NONE', 'WORKASPACE' ) );
#120 = VERTEX_POINT ( 'NONE', #136 ) ;
#121 = UNCERTAINTY_MEASURE_WITH_UNIT (LENGTH_MEASURE( 1.000000000000000100E-005 ), #219, 'distance_accuracy_value', 'NONE');
#122 = EDGE_LOOP ( 'NONE', ( #107, #208 ) ) ;
#123 = CIRCLE ( 'NONE', #206, 0.5750000000000121700 ) ;
#124 = EDGE_CURVE ( 'NONE', #110, #23, #21, .T. ) ;
#125 =( LENGTH_UNIT ( ) NAMED_UNIT ( * ) SI_UNIT ( $, .METRE. ) );
#126 =( NAMED_UNIT ( * ) PLANE_ANGLE_UNIT ( ) SI_UNIT ( $, .RADIAN. ) );
#127 = CARTESIAN_POINT ( 'NONE',  ( 0.0000000000000000000, 0.0000000000000000000, -11.94999999999997400 ) ) ;
#128 = CONICAL_SURFACE ( 'NONE', #144, 0.6250000000000000000, 0.7853981633974168600 ) ;
#129 = ADVANCED_FACE ( 'NONE', ( #163 ), #239, .T. ) ;
#130 = AXIS2_PLACEMENT_3D ( 'NONE', #86, #215, #103 ) ;
#131 = DIRECTION ( 'NONE',  ( -0.0000000000000000000, -0.0000000000000000000, -1.000000000000000000 ) ) ;
#132 = CARTESIAN_POINT ( 'NONE',  ( 0.5750000000000121700, 7.041719095097428100E-017, 12.00000000000000200 ) ) ;
#133 = SURFACE_SIDE_STYLE ('',( #98 ) ) ;
#134 = VECTOR ( 'NONE', #9, 39.37007874015748100 ) ;
#135 = AXIS2_PLACEMENT_3D ( 'NONE', #11, #225, #30 ) ;
#136 = CARTESIAN_POINT ( 'NONE',  ( 0.5750000000000121700, 7.347880794884191700E-017, 12.00000000000000200 ) ) ;
#137 = UNCERTAINTY_MEASURE_WITH_UNIT (LENGTH_MEASURE( 1.000000000000000100E-005 ), #37, 'distance_accuracy_value', 'NONE');
#138 = FILL_AREA_STYLE_COLOUR ( '', #236 ) ;
#139 = COLOUR_RGB ( '',0.7921568627450980000, 0.8196078431372548800, 0.9333333333333333500 ) ;
#140 =( GEOMETRIC_REPRESENTATION_CONTEXT ( 3 ) GLOBAL_UNCERTAINTY_ASSIGNED_CONTEXT ( ( #202 ) ) GLOBAL_UNIT_ASSIGNED_CONTEXT ( ( #234, #126, #5 ) ) REPRESENTATION_CONTEXT ( 'NONE', 'WORKASPACE' ) );
#141 = DIRECTION ( 'NONE',  ( 1.000000000000000000, 0.0000000000000000000, 0.0000000000000000000 ) ) ;
#142 = CARTESIAN_POINT ( 'NONE',  ( 0.0000000000000000000, 0.0000000000000000000, 12.00000000000000200 ) ) ;
#143 = ADVANCED_FACE ( 'NONE', ( #214 ), #91, .T. ) ;
#144 = AXIS2_PLACEMENT_3D ( 'NONE', #40, #194, #48 ) ;
#145 = LINE ( 'NONE', #132, #185 ) ;
#146 = ORIENTED_EDGE ( 'NONE', *, *, #96, .F. ) ;
#147 = CARTESIAN_POINT ( 'NONE',  ( 0.0000000000000000000, 0.0000000000000000000, 12.00000000000000200 ) ) ;
#148 =( LENGTH_UNIT ( ) NAMED_UNIT ( * ) SI_UNIT ( $, .METRE. ) );
#149 = EDGE_LOOP ( 'NONE', ( #10, #151, #62, #217 ) ) ;
#150 = DIRECTION ( 'NONE',  ( 0.0000000000000000000, 0.0000000000000000000, -1.000000000000000000 ) ) ;
#151 = ORIENTED_EDGE ( 'NONE', *, *, #195, .T. ) ;
#152 = AXIS2_PLACEMENT_3D ( 'NONE', #192, #87, #216 ) ;
#153 = VECTOR ( 'NONE', #174, 39.37007874015748900 ) ;
#154 = VERTEX_POINT ( 'NONE', #94 ) ;
#155 = AXIS2_PLACEMENT_3D ( 'NONE', #142, #31, #161 ) ;
#156 = EDGE_LOOP ( 'NONE', ( #116, #1, #54, #158 ) ) ;
#157 = DIRECTION ( 'NONE',  ( -0.7071067811865562300, 0.0000000000000000000, -0.7071067811865386900 ) ) ;
#158 = ORIENTED_EDGE ( 'NONE', *, *, #85, .F. ) ;
#159 = APPLICATION_CONTEXT ( 'automotive_design' ) ;
#160 = ADVANCED_BREP_SHAPE_REPRESENTATION ( 'RPSS20-24', ( #209, #24 ), #140 ) ;
#161 = DIRECTION ( 'NONE',  ( 1.000000000000000000, 0.0000000000000000000, 0.0000000000000000000 ) ) ;
#162 = ORIENTED_EDGE ( 'NONE', *, *, #33, .F. ) ;
#163 = FACE_OUTER_BOUND ( 'NONE', #149, .T. ) ;
#164 = DIMENSIONAL_EXPONENTS ( 1.000000000000000000, 0.0000000000000000000, 0.0000000000000000000, 0.0000000000000000000, 0.0000000000000000000, 0.0000000000000000000, 0.0000000000000000000 ) ;
#165 = AXIS2_PLACEMENT_3D ( 'NONE', #226, #169, #190 ) ;
#166 = ORIENTED_EDGE ( 'NONE', *, *, #108, .T. ) ;
#167 = CARTESIAN_POINT ( 'NONE',  ( 0.5749999999999772000, 0.0000000000000000000, -12.00000000000000200 ) ) ;
#168 = DIRECTION ( 'NONE',  ( 0.0000000000000000000, 0.0000000000000000000, -1.000000000000000000 ) ) ;
#169 = DIRECTION ( 'NONE',  ( -0.0000000000000000000, -0.0000000000000000000, -1.000000000000000000 ) ) ;
#170 =( NAMED_UNIT ( * ) PLANE_ANGLE_UNIT ( ) SI_UNIT ( $, .RADIAN. ) );
#171 = VECTOR ( 'NONE', #97, 39.37007874015748100 ) ;
#172 = AXIS2_PLACEMENT_3D ( 'NONE', #127, #220, #237 ) ;
#173 = DIRECTION ( 'NONE',  ( -0.0000000000000000000, -0.0000000000000000000, -1.000000000000000000 ) ) ;
#174 = DIRECTION ( 'NONE',  ( -0.7071067811865252600, 8.659560562354660500E-017, 0.7071067811865696700 ) ) ;
#175 = CIRCLE ( 'NONE', #155, 0.5750000000000121700 ) ;
#176 = PRODUCT_DEFINITION_SHAPE ( 'NONE', 'NONE',  #35 ) ;
#177 = LENGTH_MEASURE_WITH_UNIT ( LENGTH_MEASURE( 0.02539999999999999900 ), #148 );
#178 = FILL_AREA_STYLE ('',( #138 ) ) ;
#179 = FACE_OUTER_BOUND ( 'NONE', #67, .T. ) ;
#180 = AXIS2_PLACEMENT_3D ( 'NONE', #22, #150, #38 ) ;
#181 = ADVANCED_FACE ( 'NONE', ( #227 ), #203, .F. ) ;
#182 = PLANE ( 'NONE',  #83 ) ;
#183 = CARTESIAN_POINT ( 'NONE',  ( -0.6250000000000000000, 0.0000000000000000000, -11.94999999999997400 ) ) ;
#184 = CARTESIAN_POINT ( 'NONE',  ( 0.0000000000000000000, 0.0000000000000000000, -11.94999999999997400 ) ) ;
#185 = VECTOR ( 'NONE', #224, 39.37007874015748900 ) ;
#186 = STYLED_ITEM ( 'NONE', ( #243 ), #160 ) ;
#187 = VECTOR ( 'NONE', #157, 39.37007874015748900 ) ;
#188 = CARTESIAN_POINT ( 'NONE',  ( -0.6250000000000000000, 7.654042494670957900E-017, -11.94999999999997400 ) ) ;
#189 = AXIS2_PLACEMENT_3D ( 'NONE', #184, #82, #207 ) ;
#190 = DIRECTION ( 'NONE',  ( -1.000000000000000000, 0.0000000000000000000, 0.0000000000000000000 ) ) ;
#191 = ORIENTED_EDGE ( 'NONE', *, *, #60, .T. ) ;
#192 = CARTESIAN_POINT ( 'NONE',  ( 0.0000000000000000000, 0.0000000000000000000, -12.00000000000000200 ) ) ;
#193 = SURFACE_STYLE_USAGE ( .BOTH. , #71 ) ;
#194 = DIRECTION ( 'NONE',  ( -0.0000000000000000000, -0.0000000000000000000, 1.000000000000000000 ) ) ;
#195 = EDGE_CURVE ( 'NONE', #120, #196, #145, .T. ) ;
#196 = VERTEX_POINT ( 'NONE', #36 ) ;
#197 = ADVANCED_FACE ( 'NONE', ( #39 ), #182, .T. ) ;
#198 = EDGE_LOOP ( 'NONE', ( #78, #66, #117, #146 ) ) ;
#199 = PRESENTATION_LAYER_ASSIGNMENT (  '', '', ( #186 ) ) ;
#200 = DIRECTION ( 'NONE',  ( -1.000000000000000000, 0.0000000000000000000, 0.0000000000000000000 ) ) ;
#201 = LINE ( 'NONE', #188, #153 ) ;
#202 = UNCERTAINTY_MEASURE_WITH_UNIT (LENGTH_MEASURE( 1.000000000000000100E-005 ), #234, 'distance_accuracy_value', 'NONE');
#203 = PLANE ( 'NONE',  #52 ) ;
#204 = DIRECTION ( 'NONE',  ( 1.000000000000000000, 0.0000000000000000000, -0.0000000000000000000 ) ) ;
#205 = ORIENTED_EDGE ( 'NONE', *, *, #238, .F. ) ;
#206 = AXIS2_PLACEMENT_3D ( 'NONE', #118, #247, #77 ) ;
#207 = DIRECTION ( 'NONE',  ( 1.000000000000000000, 0.0000000000000000000, 0.0000000000000000000 ) ) ;
#208 = ORIENTED_EDGE ( 'NONE', *, *, #238, .T. ) ;
#209 = MANIFOLD_SOLID_BREP ( 'Chamfer1', #61 ) ;
#210 = ORIENTED_EDGE ( 'NONE', *, *, #85, .T. ) ;
#211 = CARTESIAN_POINT ( 'NONE',  ( -0.5749999999999772000, 7.347880794883979700E-017, -12.00000000000000200 ) ) ;
#212 = EDGE_CURVE ( 'NONE', #112, #196, #46, .T. ) ;
#213 = LINE ( 'NONE', #65, #231 ) ;
#214 = FACE_OUTER_BOUND ( 'NONE', #156, .T. ) ;
#215 = DIRECTION ( 'NONE',  ( 0.0000000000000000000, 0.0000000000000000000, -1.000000000000000000 ) ) ;
#216 = DIRECTION ( 'NONE',  ( 1.000000000000000000, 0.0000000000000000000, 0.0000000000000000000 ) ) ;
#217 = ORIENTED_EDGE ( 'NONE', *, *, #228, .F. ) ;
#218 = MECHANICAL_DESIGN_GEOMETRIC_PRESENTATION_REPRESENTATION (  '', ( #186 ), #230 ) ;
#219 =( CONVERSION_BASED_UNIT ( 'INCH', #18 ) LENGTH_UNIT ( ) NAMED_UNIT ( #53 ) );
#220 = DIRECTION ( 'NONE',  ( -0.0000000000000000000, -0.0000000000000000000, 1.000000000000000000 ) ) ;
#221 = CONICAL_SURFACE ( 'NONE', #172, 0.6250000000000000000, 0.7853981633974168600 ) ;
#222 = ADVANCED_FACE ( 'NONE', ( #233 ), #93, .T. ) ;
#223 = AXIS2_PLACEMENT_3D ( 'NONE', #92, #79, #113 ) ;
#224 = DIRECTION ( 'NONE',  ( 0.7071067811865562300, 8.659560562355038900E-017, -0.7071067811865386900 ) ) ;
#225 = DIRECTION ( 'NONE',  ( -0.0000000000000000000, -0.0000000000000000000, 1.000000000000000000 ) ) ;
#226 = CARTESIAN_POINT ( 'NONE',  ( 0.0000000000000000000, 0.0000000000000000000, 12.00000000000000200 ) ) ;
#227 = FACE_OUTER_BOUND ( 'NONE', #122, .T. ) ;
#228 = EDGE_CURVE ( 'NONE', #248, #112, #240, .T. ) ;
#229 = CARTESIAN_POINT ( 'NONE',  ( 0.0000000000000000000, 0.0000000000000000000, 12.00000000000000200 ) ) ;
#230 =( GEOMETRIC_REPRESENTATION_CONTEXT ( 3 ) GLOBAL_UNCERTAINTY_ASSIGNED_CONTEXT ( ( #121 ) ) GLOBAL_UNIT_ASSIGNED_CONTEXT ( ( #219, #106, #235 ) ) REPRESENTATION_CONTEXT ( 'NONE', 'WORKASPACE' ) );
#231 = VECTOR ( 'NONE', #101, 39.37007874015748900 ) ;
#232 = AXIS2_PLACEMENT_3D ( 'NONE', #241, #131, #15 ) ;
#233 = FACE_OUTER_BOUND ( 'NONE', #63, .T. ) ;
#234 =( CONVERSION_BASED_UNIT ( 'INCH', #8 ) LENGTH_UNIT ( ) NAMED_UNIT ( #89 ) );
#235 =( NAMED_UNIT ( * ) SI_UNIT ( $, .STERADIAN. ) SOLID_ANGLE_UNIT ( ) );
#236 = COLOUR_RGB ( '',0.7921568627450980000, 0.8196078431372548800, 0.9333333333333333500 ) ;
#237 = DIRECTION ( 'NONE',  ( 1.000000000000000000, 0.0000000000000000000, 0.0000000000000000000 ) ) ;
#238 = EDGE_CURVE ( 'NONE', #23, #110, #100, .T. ) ;
#239 = CONICAL_SURFACE ( 'NONE', #223, 0.5750000000000121700, 0.7853981633974606000 ) ;
#240 = LINE ( 'NONE', #26, #187 ) ;
#241 = CARTESIAN_POINT ( 'NONE',  ( 0.0000000000000000000, 0.0000000000000000000, -12.00000000000000200 ) ) ;
#242 = DIRECTION ( 'NONE',  ( 1.000000000000000000, 0.0000000000000000000, -0.0000000000000000000 ) ) ;
#243 = PRESENTATION_STYLE_ASSIGNMENT (( #193 ) ) ;
#244 = FILL_AREA_STYLE ('',( #115 ) ) ;
#245 = DIRECTION ( 'NONE',  ( -1.000000000000000000, 0.0000000000000000000, 0.0000000000000000000 ) ) ;
#246 = AXIS2_PLACEMENT_3D ( 'NONE', #229, #173, #245 ) ;
#247 = DIRECTION ( 'NONE',  ( 0.0000000000000000000, 0.0000000000000000000, 1.000000000000000000 ) ) ;
#248 = VERTEX_POINT ( 'NONE', #95 ) ;
#249 = FACE_OUTER_BOUND ( 'NONE', #198, .T. ) ;
ENDSEC;
END-ISO-10303-21;
