ISO-10303-21;
HEADER;
FILE_DESCRIPTION (( 'STEP AP214' ),
    '1' );
FILE_NAME ('RPSS20-36.step',
    '2017-08-09T17:50:06',
    ( '' ),
    ( '' ),
    'SwSTEP 2.0',
    'SolidWorks 2017',
    '' );
FILE_SCHEMA (( 'AUTOMOTIVE_DESIGN' ));
ENDSEC;

DATA;
#1 =( LENGTH_UNIT ( ) NAMED_UNIT ( * ) SI_UNIT ( $, .METRE. ) );
#2 = CIRCLE ( 'NONE', #71, 0.6250000000000000000 ) ;
#3 = PLANE ( 'NONE',  #204 ) ;
#4 = DIMENSIONAL_EXPONENTS ( 1.000000000000000000, 0.0000000000000000000, 0.0000000000000000000, 0.0000000000000000000, 0.0000000000000000000, 0.0000000000000000000, 0.0000000000000000000 ) ;
#5 = PRODUCT_RELATED_PRODUCT_CATEGORY ( 'part', '', ( #171 ) ) ;
#6 = APPLICATION_PROTOCOL_DEFINITION ( 'draft international standard', 'automotive_design', 1998, #50 ) ;
#7 = SURFACE_STYLE_USAGE ( .BOTH. , #131 ) ;
#8 = VERTEX_POINT ( 'NONE', #244 ) ;
#9 = APPLICATION_PROTOCOL_DEFINITION ( 'draft international standard', 'automotive_design', 1998, #207 ) ;
#10 = EDGE_CURVE ( 'NONE', #195, #75, #239, .T. ) ;
#11 = DIRECTION ( 'NONE',  ( -0.0000000000000000000, -0.0000000000000000000, -1.000000000000000000 ) ) ;
#12 = CIRCLE ( 'NONE', #59, 0.5749999999999991800 ) ;
#13 = FILL_AREA_STYLE ('',( #113 ) ) ;
#14 = VERTEX_POINT ( 'NONE', #95 ) ;
#15 = AXIS2_PLACEMENT_3D ( 'NONE', #133, #11, #152 ) ;
#16 = VECTOR ( 'NONE', #141, 39.37007874015748100 ) ;
#17 = PRODUCT_DEFINITION_FORMATION_WITH_SPECIFIED_SOURCE ( 'ANY', '', #171, .NOT_KNOWN. ) ;
#18 = MANIFOLD_SOLID_BREP ( 'Chamfer1', #245 ) ;
#19 = ORIENTED_EDGE ( 'NONE', *, *, #225, .F. ) ;
#20 =( NAMED_UNIT ( * ) SI_UNIT ( $, .STERADIAN. ) SOLID_ANGLE_UNIT ( ) );
#21 = EDGE_CURVE ( 'NONE', #8, #135, #73, .T. ) ;
#22 = CARTESIAN_POINT ( 'NONE',  ( 0.0000000000000000000, 0.0000000000000000000, 17.94999999999999900 ) ) ;
#23 = ADVANCED_FACE ( 'NONE', ( #139 ), #214, .T. ) ;
#24 = PRODUCT_DEFINITION_SHAPE ( 'NONE', 'NONE',  #35 ) ;
#25 = DIRECTION ( 'NONE',  ( -1.000000000000000000, 0.0000000000000000000, 0.0000000000000000000 ) ) ;
#26 = ORIENTED_EDGE ( 'NONE', *, *, #94, .T. ) ;
#27 =( LENGTH_UNIT ( ) NAMED_UNIT ( * ) SI_UNIT ( $, .METRE. ) );
#28 = AXIS2_PLACEMENT_3D ( 'NONE', #203, #202, #147 ) ;
#29 = DIRECTION ( 'NONE',  ( 0.0000000000000000000, 0.0000000000000000000, -1.000000000000000000 ) ) ;
#30 = CARTESIAN_POINT ( 'NONE',  ( 0.6250000000000000000, 7.654042494670957900E-017, 17.94999999999999900 ) ) ;
#31 = LENGTH_MEASURE_WITH_UNIT ( LENGTH_MEASURE( 0.02539999999999999900 ), #1 );
#32 = DIRECTION ( 'NONE',  ( 0.0000000000000000000, 0.0000000000000000000, 1.000000000000000000 ) ) ;
#33 = CONICAL_SURFACE ( 'NONE', #180, 0.5749999999999991800, 0.7853981633974374000 ) ;
#34 = ORIENTED_EDGE ( 'NONE', *, *, #102, .F. ) ;
#35 = PRODUCT_DEFINITION ( 'UNKNOWN', '', #17, #176 ) ;
#36 = EDGE_LOOP ( 'NONE', ( #138, #179, #158, #192 ) ) ;
#37 = EDGE_CURVE ( 'NONE', #135, #195, #64, .T. ) ;
#38 = LINE ( 'NONE', #237, #145 ) ;
#39 = UNCERTAINTY_MEASURE_WITH_UNIT (LENGTH_MEASURE( 1.000000000000000100E-005 ), #165, 'distance_accuracy_value', 'NONE');
#40 = AXIS2_PLACEMENT_3D ( 'NONE', #199, #43, #80 ) ;
#41 = SURFACE_STYLE_FILL_AREA ( #13 ) ;
#42 =( NAMED_UNIT ( * ) PLANE_ANGLE_UNIT ( ) SI_UNIT ( $, .RADIAN. ) );
#43 = DIRECTION ( 'NONE',  ( -0.0000000000000000000, -0.0000000000000000000, -1.000000000000000000 ) ) ;
#44 = DIRECTION ( 'NONE',  ( 1.000000000000000000, 0.0000000000000000000, 0.0000000000000000000 ) ) ;
#45 = ADVANCED_FACE ( 'NONE', ( #217 ), #162, .T. ) ;
#46 = CONICAL_SURFACE ( 'NONE', #28, 0.6250000000000000000, 0.7853981633974155300 ) ;
#47 = CARTESIAN_POINT ( 'NONE',  ( 0.0000000000000000000, 0.0000000000000000000, -18.00000000000000000 ) ) ;
#48 = DIRECTION ( 'NONE',  ( 0.0000000000000000000, 0.0000000000000000000, -1.000000000000000000 ) ) ;
#49 = AXIS2_PLACEMENT_3D ( 'NONE', #91, #148, #172 ) ;
#50 = APPLICATION_CONTEXT ( 'automotive_design' ) ;
#51 = CARTESIAN_POINT ( 'NONE',  ( 0.0000000000000000000, 0.0000000000000000000, 17.94999999999999900 ) ) ;
#52 = ORIENTED_EDGE ( 'NONE', *, *, #62, .F. ) ;
#53 = ORIENTED_EDGE ( 'NONE', *, *, #76, .T. ) ;
#54 = EDGE_CURVE ( 'NONE', #75, #137, #175, .T. ) ;
#55 = DIRECTION ( 'NONE',  ( -0.0000000000000000000, -0.0000000000000000000, -1.000000000000000000 ) ) ;
#56 = FACE_OUTER_BOUND ( 'NONE', #108, .T. ) ;
#57 = LENGTH_MEASURE_WITH_UNIT ( LENGTH_MEASURE( 0.02539999999999999900 ), #27 );
#58 = EDGE_LOOP ( 'NONE', ( #222, #156, #233, #129 ) ) ;
#59 = AXIS2_PLACEMENT_3D ( 'NONE', #47, #182, #67 ) ;
#60 = LINE ( 'NONE', #104, #157 ) ;
#61 = EDGE_LOOP ( 'NONE', ( #77, #169, #196, #232 ) ) ;
#62 = EDGE_CURVE ( 'NONE', #249, #8, #238, .T. ) ;
#63 = CARTESIAN_POINT ( 'NONE',  ( 0.0000000000000000000, 0.0000000000000000000, -17.94999999999999600 ) ) ;
#64 = CIRCLE ( 'NONE', #121, 0.6250000000000000000 ) ;
#65 = ADVANCED_FACE ( 'NONE', ( #119 ), #210, .T. ) ;
#66 = DIRECTION ( 'NONE',  ( 1.000000000000000000, 0.0000000000000000000, 0.0000000000000000000 ) ) ;
#67 = DIRECTION ( 'NONE',  ( 1.000000000000000000, 0.0000000000000000000, 0.0000000000000000000 ) ) ;
#68 = DIRECTION ( 'NONE',  ( 0.0000000000000000000, 0.0000000000000000000, 1.000000000000000000 ) ) ;
#69 = EDGE_LOOP ( 'NONE', ( #101, #188, #19, #206 ) ) ;
#70 =( CONVERSION_BASED_UNIT ( 'INCH', #57 ) LENGTH_UNIT ( ) NAMED_UNIT ( #221 ) );
#71 = AXIS2_PLACEMENT_3D ( 'NONE', #51, #205, #89 ) ;
#72 = CARTESIAN_POINT ( 'NONE',  ( 0.6250000000000000000, 7.654042494670957900E-017, 18.00000000000000000 ) ) ;
#73 = LINE ( 'NONE', #160, #16 ) ;
#74 = DIRECTION ( 'NONE',  ( 0.7071067811865243700, 0.0000000000000000000, 0.7071067811865706700 ) ) ;
#75 = VERTEX_POINT ( 'NONE', #123 ) ;
#76 = EDGE_CURVE ( 'NONE', #14, #229, #12, .T. ) ;
#77 = ORIENTED_EDGE ( 'NONE', *, *, #247, .F. ) ;
#78 = AXIS2_PLACEMENT_3D ( 'NONE', #142, #79, #124 ) ;
#79 = DIRECTION ( 'NONE',  ( -0.0000000000000000000, -0.0000000000000000000, -1.000000000000000000 ) ) ;
#80 = DIRECTION ( 'NONE',  ( -1.000000000000000000, 0.0000000000000000000, 0.0000000000000000000 ) ) ;
#81 = DIMENSIONAL_EXPONENTS ( 1.000000000000000000, 0.0000000000000000000, 0.0000000000000000000, 0.0000000000000000000, 0.0000000000000000000, 0.0000000000000000000, 0.0000000000000000000 ) ;
#82 = FILL_AREA_STYLE_COLOUR ( '', #183 ) ;
#83 = ADVANCED_BREP_SHAPE_REPRESENTATION ( 'RPSS20-36', ( #18, #49 ), #155 ) ;
#84 = CIRCLE ( 'NONE', #168, 0.6250000000000000000 ) ;
#85 = EDGE_LOOP ( 'NONE', ( #53, #90 ) ) ;
#86 = CARTESIAN_POINT ( 'NONE',  ( -0.6250000000000000000, 0.0000000000000000000, 17.94999999999999900 ) ) ;
#87 =( GEOMETRIC_REPRESENTATION_CONTEXT ( 3 ) GLOBAL_UNCERTAINTY_ASSIGNED_CONTEXT ( ( #134 ) ) GLOBAL_UNIT_ASSIGNED_CONTEXT ( ( #70, #224, #110 ) ) REPRESENTATION_CONTEXT ( 'NONE', 'WORKASPACE' ) );
#88 = FILL_AREA_STYLE ('',( #82 ) ) ;
#89 = DIRECTION ( 'NONE',  ( 1.000000000000000000, 0.0000000000000000000, 0.0000000000000000000 ) ) ;
#90 = ORIENTED_EDGE ( 'NONE', *, *, #118, .T. ) ;
#91 = CARTESIAN_POINT ( 'NONE',  ( 0.0000000000000000000, 0.0000000000000000000, 0.0000000000000000000 ) ) ;
#92 = PRESENTATION_STYLE_ASSIGNMENT (( #122 ) ) ;
#93 = DIRECTION ( 'NONE',  ( -0.0000000000000000000, -0.0000000000000000000, 1.000000000000000000 ) ) ;
#94 = EDGE_CURVE ( 'NONE', #249, #195, #60, .T. ) ;
#95 = CARTESIAN_POINT ( 'NONE',  ( 0.5749999999999991800, 0.0000000000000000000, -18.00000000000000000 ) ) ;
#96 = SHAPE_DEFINITION_REPRESENTATION ( #24, #83 ) ;
#97 = AXIS2_PLACEMENT_3D ( 'NONE', #63, #218, #44 ) ;
#98 = COLOUR_RGB ( '',0.7921568627450980000, 0.8196078431372548800, 0.9333333333333333500 ) ;
#99 = CIRCLE ( 'NONE', #216, 0.5749999999999991800 ) ;
#100 = MECHANICAL_DESIGN_GEOMETRIC_PRESENTATION_REPRESENTATION (  '', ( #130 ), #87 ) ;
#101 = ORIENTED_EDGE ( 'NONE', *, *, #118, .F. ) ;
#102 = EDGE_CURVE ( 'NONE', #195, #135, #2, .T. ) ;
#103 = FACE_OUTER_BOUND ( 'NONE', #58, .T. ) ;
#104 = CARTESIAN_POINT ( 'NONE',  ( -0.5749999999999991800, 0.0000000000000000000, 18.00000000000000000 ) ) ;
#105 = ADVANCED_FACE ( 'NONE', ( #103 ), #46, .T. ) ;
#106 =( NAMED_UNIT ( * ) SI_UNIT ( $, .STERADIAN. ) SOLID_ANGLE_UNIT ( ) );
#107 = CARTESIAN_POINT ( 'NONE',  ( -0.5749999999999991800, 7.347880794884115300E-017, -18.00000000000000000 ) ) ;
#108 = EDGE_LOOP ( 'NONE', ( #120, #215 ) ) ;
#109 = ORIENTED_EDGE ( 'NONE', *, *, #21, .F. ) ;
#110 =( NAMED_UNIT ( * ) SI_UNIT ( $, .STERADIAN. ) SOLID_ANGLE_UNIT ( ) );
#111 = AXIS2_PLACEMENT_3D ( 'NONE', #220, #126, #198 ) ;
#112 = FACE_OUTER_BOUND ( 'NONE', #85, .T. ) ;
#113 = FILL_AREA_STYLE_COLOUR ( '', #98 ) ;
#114 = CARTESIAN_POINT ( 'NONE',  ( 0.0000000000000000000, 0.0000000000000000000, -17.94999999999999600 ) ) ;
#115 = PRESENTATION_LAYER_ASSIGNMENT (  '', '', ( #130 ) ) ;
#116 = PRESENTATION_STYLE_ASSIGNMENT (( #7 ) ) ;
#117 = ORIENTED_EDGE ( 'NONE', *, *, #37, .F. ) ;
#118 = EDGE_CURVE ( 'NONE', #229, #14, #153, .T. ) ;
#119 = FACE_OUTER_BOUND ( 'NONE', #61, .T. ) ;
#120 = ORIENTED_EDGE ( 'NONE', *, *, #62, .T. ) ;
#121 = AXIS2_PLACEMENT_3D ( 'NONE', #22, #163, #66 ) ;
#122 = SURFACE_STYLE_USAGE ( .BOTH. , #154 ) ;
#123 = CARTESIAN_POINT ( 'NONE',  ( -0.6250000000000000000, 0.0000000000000000000, -17.94999999999999600 ) ) ;
#124 = DIRECTION ( 'NONE',  ( -1.000000000000000000, 0.0000000000000000000, 0.0000000000000000000 ) ) ;
#125 = ADVANCED_FACE ( 'NONE', ( #56 ), #240, .T. ) ;
#126 = DIRECTION ( 'NONE',  ( 0.0000000000000000000, 0.0000000000000000000, 1.000000000000000000 ) ) ;
#127 = DIRECTION ( 'NONE',  ( 1.000000000000000000, 0.0000000000000000000, -0.0000000000000000000 ) ) ;
#128 = LENGTH_MEASURE_WITH_UNIT ( LENGTH_MEASURE( 0.02539999999999999900 ), #146 );
#129 = ORIENTED_EDGE ( 'NONE', *, *, #54, .F. ) ;
#130 = STYLED_ITEM ( 'NONE', ( #116 ), #83 ) ;
#131 = SURFACE_SIDE_STYLE ('',( #167 ) ) ;
#132 = CARTESIAN_POINT ( 'NONE',  ( 0.0000000000000000000, 0.0000000000000000000, 18.00000000000000000 ) ) ;
#133 = CARTESIAN_POINT ( 'NONE',  ( 0.0000000000000000000, 0.0000000000000000000, -18.00000000000000000 ) ) ;
#134 = UNCERTAINTY_MEASURE_WITH_UNIT (LENGTH_MEASURE( 1.000000000000000100E-005 ), #70, 'distance_accuracy_value', 'NONE');
#135 = VERTEX_POINT ( 'NONE', #30 ) ;
#136 = AXIS2_PLACEMENT_3D ( 'NONE', #114, #228, #161 ) ;
#137 = VERTEX_POINT ( 'NONE', #164 ) ;
#138 = ORIENTED_EDGE ( 'NONE', *, *, #102, .T. ) ;
#139 = FACE_OUTER_BOUND ( 'NONE', #69, .T. ) ;
#140 =( CONVERSION_BASED_UNIT ( 'INCH', #31 ) LENGTH_UNIT ( ) NAMED_UNIT ( #81 ) );
#141 = DIRECTION ( 'NONE',  ( 0.7071067811865398000, 8.659560562354837900E-017, -0.7071067811865552300 ) ) ;
#142 = CARTESIAN_POINT ( 'NONE',  ( 0.0000000000000000000, 0.0000000000000000000, 18.00000000000000000 ) ) ;
#143 = ADVANCED_FACE ( 'NONE', ( #112 ), #3, .F. ) ;
#144 = DIRECTION ( 'NONE',  ( -0.7071067811865243700, 8.659560562354649400E-017, 0.7071067811865706700 ) ) ;
#145 = VECTOR ( 'NONE', #144, 39.37007874015748100 ) ;
#146 =( LENGTH_UNIT ( ) NAMED_UNIT ( * ) SI_UNIT ( $, .METRE. ) );
#147 = DIRECTION ( 'NONE',  ( 1.000000000000000000, 0.0000000000000000000, 0.0000000000000000000 ) ) ;
#148 = DIRECTION ( 'NONE',  ( 0.0000000000000000000, 0.0000000000000000000, 1.000000000000000000 ) ) ;
#149 = EDGE_LOOP ( 'NONE', ( #246, #185, #34, #177 ) ) ;
#150 =( GEOMETRIC_REPRESENTATION_CONTEXT ( 3 ) GLOBAL_UNCERTAINTY_ASSIGNED_CONTEXT ( ( #243 ) ) GLOBAL_UNIT_ASSIGNED_CONTEXT ( ( #140, #42, #20 ) ) REPRESENTATION_CONTEXT ( 'NONE', 'WORKASPACE' ) );
#151 = CARTESIAN_POINT ( 'NONE',  ( 0.0000000000000000000, 0.0000000000000000000, -18.00000000000000000 ) ) ;
#152 = DIRECTION ( 'NONE',  ( 1.000000000000000000, 0.0000000000000000000, 0.0000000000000000000 ) ) ;
#153 = CIRCLE ( 'NONE', #15, 0.5749999999999991800 ) ;
#154 = SURFACE_SIDE_STYLE ('',( #41 ) ) ;
#155 =( GEOMETRIC_REPRESENTATION_CONTEXT ( 3 ) GLOBAL_UNCERTAINTY_ASSIGNED_CONTEXT ( ( #39 ) ) GLOBAL_UNIT_ASSIGNED_CONTEXT ( ( #165, #184, #106 ) ) REPRESENTATION_CONTEXT ( 'NONE', 'WORKASPACE' ) );
#156 = ORIENTED_EDGE ( 'NONE', *, *, #76, .F. ) ;
#157 = VECTOR ( 'NONE', #181, 39.37007874015748100 ) ;
#158 = ORIENTED_EDGE ( 'NONE', *, *, #225, .T. ) ;
#159 = MECHANICAL_DESIGN_GEOMETRIC_PRESENTATION_REPRESENTATION (  '', ( #189 ), #150 ) ;
#160 = CARTESIAN_POINT ( 'NONE',  ( 0.5749999999999991800, 7.041719095097270300E-017, 18.00000000000000000 ) ) ;
#161 = DIRECTION ( 'NONE',  ( 1.000000000000000000, 0.0000000000000000000, 0.0000000000000000000 ) ) ;
#162 = CYLINDRICAL_SURFACE ( 'NONE', #78, 0.6250000000000000000 ) ;
#163 = DIRECTION ( 'NONE',  ( 0.0000000000000000000, 0.0000000000000000000, -1.000000000000000000 ) ) ;
#164 = CARTESIAN_POINT ( 'NONE',  ( 0.6250000000000000000, 7.654042494670957900E-017, -17.94999999999999600 ) ) ;
#165 =( CONVERSION_BASED_UNIT ( 'INCH', #128 ) LENGTH_UNIT ( ) NAMED_UNIT ( #4 ) );
#166 = CARTESIAN_POINT ( 'NONE',  ( 0.0000000000000000000, 0.0000000000000000000, 18.00000000000000000 ) ) ;
#167 = SURFACE_STYLE_FILL_AREA ( #88 ) ;
#168 = AXIS2_PLACEMENT_3D ( 'NONE', #208, #93, #174 ) ;
#169 = ORIENTED_EDGE ( 'NONE', *, *, #37, .T. ) ;
#170 = DIRECTION ( 'NONE',  ( -1.000000000000000000, 0.0000000000000000000, 0.0000000000000000000 ) ) ;
#171 = PRODUCT ( 'RPSS20-36', 'RPSS20-36', '', ( #187 ) ) ;
#172 = DIRECTION ( 'NONE',  ( 1.000000000000000000, 0.0000000000000000000, 0.0000000000000000000 ) ) ;
#173 = CARTESIAN_POINT ( 'NONE',  ( 0.6250000000000000000, 0.0000000000000000000, -17.94999999999999600 ) ) ;
#174 = DIRECTION ( 'NONE',  ( 1.000000000000000000, 0.0000000000000000000, 0.0000000000000000000 ) ) ;
#175 = CIRCLE ( 'NONE', #97, 0.6250000000000000000 ) ;
#176 = PRODUCT_DEFINITION_CONTEXT ( 'detailed design', #207, 'design' ) ;
#177 = ORIENTED_EDGE ( 'NONE', *, *, #94, .F. ) ;
#178 = PRESENTATION_LAYER_ASSIGNMENT (  '', '', ( #189 ) ) ;
#179 = ORIENTED_EDGE ( 'NONE', *, *, #247, .T. ) ;
#180 = AXIS2_PLACEMENT_3D ( 'NONE', #132, #29, #170 ) ;
#181 = DIRECTION ( 'NONE',  ( -0.7071067811865398000, 0.0000000000000000000, -0.7071067811865552300 ) ) ;
#182 = DIRECTION ( 'NONE',  ( -0.0000000000000000000, -0.0000000000000000000, -1.000000000000000000 ) ) ;
#183 = COLOUR_RGB ( '',0.7921568627450980000, 0.8196078431372548800, 0.9333333333333333500 ) ;
#184 =( NAMED_UNIT ( * ) PLANE_ANGLE_UNIT ( ) SI_UNIT ( $, .RADIAN. ) );
#185 = ORIENTED_EDGE ( 'NONE', *, *, #21, .T. ) ;
#186 = CARTESIAN_POINT ( 'NONE',  ( 0.0000000000000000000, 0.0000000000000000000, 18.00000000000000000 ) ) ;
#187 = PRODUCT_CONTEXT ( 'NONE', #50, 'mechanical' ) ;
#188 = ORIENTED_EDGE ( 'NONE', *, *, #213, .T. ) ;
#189 = STYLED_ITEM ( 'NONE', ( #92 ), #18 ) ;
#190 = LINE ( 'NONE', #72, #231 ) ;
#191 = AXIS2_PLACEMENT_3D ( 'NONE', #166, #48, #25 ) ;
#192 = ORIENTED_EDGE ( 'NONE', *, *, #10, .F. ) ;
#193 = VECTOR ( 'NONE', #227, 39.37007874015748100 ) ;
#194 = LINE ( 'NONE', #173, #242 ) ;
#195 = VERTEX_POINT ( 'NONE', #86 ) ;
#196 = ORIENTED_EDGE ( 'NONE', *, *, #10, .T. ) ;
#197 = EDGE_CURVE ( 'NONE', #8, #249, #99, .T. ) ;
#198 = DIRECTION ( 'NONE',  ( 1.000000000000000000, 0.0000000000000000000, 0.0000000000000000000 ) ) ;
#199 = CARTESIAN_POINT ( 'NONE',  ( 0.0000000000000000000, 0.0000000000000000000, 18.00000000000000000 ) ) ;
#200 = ADVANCED_FACE ( 'NONE', ( #248 ), #235, .T. ) ;
#201 = FACE_OUTER_BOUND ( 'NONE', #212, .T. ) ;
#202 = DIRECTION ( 'NONE',  ( -0.0000000000000000000, -0.0000000000000000000, 1.000000000000000000 ) ) ;
#203 = CARTESIAN_POINT ( 'NONE',  ( 0.0000000000000000000, 0.0000000000000000000, -17.94999999999999600 ) ) ;
#204 = AXIS2_PLACEMENT_3D ( 'NONE', #151, #236, #127 ) ;
#205 = DIRECTION ( 'NONE',  ( 0.0000000000000000000, 0.0000000000000000000, -1.000000000000000000 ) ) ;
#206 = ORIENTED_EDGE ( 'NONE', *, *, #234, .F. ) ;
#207 = APPLICATION_CONTEXT ( 'automotive_design' ) ;
#208 = CARTESIAN_POINT ( 'NONE',  ( 0.0000000000000000000, 0.0000000000000000000, -17.94999999999999600 ) ) ;
#209 = DIRECTION ( 'NONE',  ( 1.000000000000000000, 0.0000000000000000000, -0.0000000000000000000 ) ) ;
#210 = CYLINDRICAL_SURFACE ( 'NONE', #40, 0.6250000000000000000 ) ;
#211 = CARTESIAN_POINT ( 'NONE',  ( -0.6250000000000000000, 0.0000000000000000000, 18.00000000000000000 ) ) ;
#212 = EDGE_LOOP ( 'NONE', ( #109, #52, #26, #117 ) ) ;
#213 = EDGE_CURVE ( 'NONE', #229, #75, #38, .T. ) ;
#214 = CONICAL_SURFACE ( 'NONE', #136, 0.6250000000000000000, 0.7853981633974155300 ) ;
#215 = ORIENTED_EDGE ( 'NONE', *, *, #197, .T. ) ;
#216 = AXIS2_PLACEMENT_3D ( 'NONE', #186, #68, #223 ) ;
#217 = FACE_OUTER_BOUND ( 'NONE', #36, .T. ) ;
#218 = DIRECTION ( 'NONE',  ( -0.0000000000000000000, -0.0000000000000000000, 1.000000000000000000 ) ) ;
#219 = ADVANCED_FACE ( 'NONE', ( #201 ), #33, .T. ) ;
#220 = CARTESIAN_POINT ( 'NONE',  ( 0.0000000000000000000, 0.0000000000000000000, 18.00000000000000000 ) ) ;
#221 = DIMENSIONAL_EXPONENTS ( 1.000000000000000000, 0.0000000000000000000, 0.0000000000000000000, 0.0000000000000000000, 0.0000000000000000000, 0.0000000000000000000, 0.0000000000000000000 ) ;
#222 = ORIENTED_EDGE ( 'NONE', *, *, #213, .F. ) ;
#223 = DIRECTION ( 'NONE',  ( 1.000000000000000000, 0.0000000000000000000, 0.0000000000000000000 ) ) ;
#224 =( NAMED_UNIT ( * ) PLANE_ANGLE_UNIT ( ) SI_UNIT ( $, .RADIAN. ) );
#225 = EDGE_CURVE ( 'NONE', #137, #75, #84, .T. ) ;
#226 = CARTESIAN_POINT ( 'NONE',  ( -0.5749999999999991800, 0.0000000000000000000, 18.00000000000000000 ) ) ;
#227 = DIRECTION ( 'NONE',  ( -0.0000000000000000000, -0.0000000000000000000, -1.000000000000000000 ) ) ;
#228 = DIRECTION ( 'NONE',  ( -0.0000000000000000000, -0.0000000000000000000, 1.000000000000000000 ) ) ;
#229 = VERTEX_POINT ( 'NONE', #107 ) ;
#230 = AXIS2_PLACEMENT_3D ( 'NONE', #241, #32, #209 ) ;
#231 = VECTOR ( 'NONE', #55, 39.37007874015748100 ) ;
#232 = ORIENTED_EDGE ( 'NONE', *, *, #54, .T. ) ;
#233 = ORIENTED_EDGE ( 'NONE', *, *, #234, .T. ) ;
#234 = EDGE_CURVE ( 'NONE', #14, #137, #194, .T. ) ;
#235 = CONICAL_SURFACE ( 'NONE', #191, 0.5749999999999991800, 0.7853981633974374000 ) ;
#236 = DIRECTION ( 'NONE',  ( 0.0000000000000000000, 0.0000000000000000000, 1.000000000000000000 ) ) ;
#237 = CARTESIAN_POINT ( 'NONE',  ( -0.6250000000000000000, 7.654042494670957900E-017, -17.94999999999999600 ) ) ;
#238 = CIRCLE ( 'NONE', #111, 0.5749999999999991800 ) ;
#239 = LINE ( 'NONE', #211, #193 ) ;
#240 = PLANE ( 'NONE',  #230 ) ;
#241 = CARTESIAN_POINT ( 'NONE',  ( 0.0000000000000000000, 0.0000000000000000000, 18.00000000000000000 ) ) ;
#242 = VECTOR ( 'NONE', #74, 39.37007874015748100 ) ;
#243 = UNCERTAINTY_MEASURE_WITH_UNIT (LENGTH_MEASURE( 1.000000000000000100E-005 ), #140, 'distance_accuracy_value', 'NONE');
#244 = CARTESIAN_POINT ( 'NONE',  ( 0.5749999999999991800, 7.347880794884115300E-017, 18.00000000000000000 ) ) ;
#245 = CLOSED_SHELL ( 'NONE', ( #200, #23, #45, #65, #125, #143, #105, #219 ) ) ;
#246 = ORIENTED_EDGE ( 'NONE', *, *, #197, .F. ) ;
#247 = EDGE_CURVE ( 'NONE', #135, #137, #190, .T. ) ;
#248 = FACE_OUTER_BOUND ( 'NONE', #149, .T. ) ;
#249 = VERTEX_POINT ( 'NONE', #226 ) ;
ENDSEC;
END-ISO-10303-21;
