ISO-10303-21;
HEADER;
FILE_DESCRIPTION (( 'STEP AP214' ),
    '1' );
FILE_NAME ('SBP-2016-P10.STEP',
    '2019-03-02T20:04:34',
    ( '' ),
    ( '' ),
    'SwSTEP 2.0',
    'SolidWorks 2018',
    '' );
FILE_SCHEMA (( 'AUTOMOTIVE_DESIGN' ));
ENDSEC;

DATA;
#1 = CARTESIAN_POINT ( 'NONE',  ( -7.440000000000000391, 0.0000000000000000000, 9.439999999999999503 ) ) ;
#2 = VECTOR ( 'NONE', #215, 39.37007874015748143 ) ;
#3 = FACE_BOUND ( 'NONE', #134, .T. ) ;
#4 = ORIENTED_EDGE ( 'NONE', *, *, #299, .F. ) ;
#5 = DIRECTION ( 'NONE',  ( -1.000000000000000000, -0.0000000000000000000, -0.0000000000000000000 ) ) ;
#6 = CARTESIAN_POINT ( 'NONE',  ( -7.440000000000000391, -0.07470000000000000251, 9.439999999999999503 ) ) ;
#7 = CARTESIAN_POINT ( 'NONE',  ( 7.440000000000000391, 0.0000000000000000000, -9.439999999999999503 ) ) ;
#8 = DIRECTION ( 'NONE',  ( -0.0000000000000000000, 1.000000000000000000, -0.0000000000000000000 ) ) ;
#9 = CYLINDRICAL_SURFACE ( 'NONE', #57, 0.1250000000000004441 ) ;
#10 = ORIENTED_EDGE ( 'NONE', *, *, #17, .F. ) ;
#11 = DIRECTION ( 'NONE',  ( -0.0000000000000000000, 1.000000000000000000, -0.0000000000000000000 ) ) ;
#12 = VECTOR ( 'NONE', #220, 39.37007874015748143 ) ;
#13 = EDGE_LOOP ( 'NONE', ( #82 ) ) ;
#14 = ORIENTED_EDGE ( 'NONE', *, *, #307, .T. ) ;
#15 = FACE_OUTER_BOUND ( 'NONE', #45, .T. ) ;
#16 = EDGE_LOOP ( 'NONE', ( #72 ) ) ;
#17 = EDGE_CURVE ( 'NONE', #233, #225, #235, .T. ) ;
#18 = VERTEX_POINT ( 'NONE', #111 ) ;
#19 = AXIS2_PLACEMENT_3D ( 'NONE', #291, #26, #269 ) ;
#20 = ORIENTED_EDGE ( 'NONE', *, *, #333, .T. ) ;
#21 = CARTESIAN_POINT ( 'NONE',  ( -7.440000000000000391, 0.0000000000000000000, -9.439999999999999503 ) ) ;
#22 = AXIS2_PLACEMENT_3D ( 'NONE', #58, #142, #87 ) ;
#23 = ORIENTED_EDGE ( 'NONE', *, *, #95, .F. ) ;
#24 = EDGE_LOOP ( 'NONE', ( #113, #44, #60, #20 ) ) ;
#25 = DIRECTION ( 'NONE',  ( 0.0000000000000000000, -1.000000000000000000, 0.0000000000000000000 ) ) ;
#26 = DIRECTION ( 'NONE',  ( 0.0000000000000000000, -1.000000000000000000, 0.0000000000000000000 ) ) ;
#27 = STYLED_ITEM ( 'NONE', ( #196 ), #97 ) ;
#28 = DIRECTION ( 'NONE',  ( 0.0000000000000000000, 0.0000000000000000000, -1.000000000000000000 ) ) ;
#29 = DIRECTION ( 'NONE',  ( 0.0000000000000000000, -0.0000000000000000000, 1.000000000000000000 ) ) ;
#30 = LINE ( 'NONE', #70, #327 ) ;
#31 = ORIENTED_EDGE ( 'NONE', *, *, #299, .T. ) ;
#32 = DIRECTION ( 'NONE',  ( 1.000000000000000000, -0.0000000000000000000, 0.0000000000000000000 ) ) ;
#33 = DIRECTION ( 'NONE',  ( -0.0000000000000000000, 1.000000000000000000, -0.0000000000000000000 ) ) ;
#34 = CARTESIAN_POINT ( 'NONE',  ( -7.125000000000000000, 0.0000000000000000000, -9.125000000000000000 ) ) ;
#35 = EDGE_LOOP ( 'NONE', ( #213 ) ) ;
#36 = DIRECTION ( 'NONE',  ( 0.0000000000000000000, 0.0000000000000000000, -1.000000000000000000 ) ) ;
#37 = LINE ( 'NONE', #248, #12 ) ;
#38 = VECTOR ( 'NONE', #336, 39.37007874015748143 ) ;
#39 = AXIS2_PLACEMENT_3D ( 'NONE', #21, #236, #158 ) ;
#40 =( GEOMETRIC_REPRESENTATION_CONTEXT ( 3 ) GLOBAL_UNCERTAINTY_ASSIGNED_CONTEXT ( ( #123 ) ) GLOBAL_UNIT_ASSIGNED_CONTEXT ( ( #120, #62, #279 ) ) REPRESENTATION_CONTEXT ( 'NONE', 'WORKASPACE' ) );
#41 = FACE_OUTER_BOUND ( 'NONE', #94, .T. ) ;
#42 = ADVANCED_FACE ( 'NONE', ( #164, #109, #330, #174, #334 ), #266, .T. ) ;
#43 = VERTEX_POINT ( 'NONE', #251 ) ;
#44 = ORIENTED_EDGE ( 'NONE', *, *, #310, .F. ) ;
#45 = EDGE_LOOP ( 'NONE', ( #339 ) ) ;
#46 = PLANE ( 'NONE',  #39 ) ;
#47 = DIRECTION ( 'NONE',  ( 0.0000000000000000000, 0.0000000000000000000, -1.000000000000000000 ) ) ;
#48 = FACE_OUTER_BOUND ( 'NONE', #13, .T. ) ;
#49 = FACE_BOUND ( 'NONE', #84, .T. ) ;
#50 = EDGE_CURVE ( 'NONE', #228, #281, #278, .T. ) ;
#51 = CARTESIAN_POINT ( 'NONE',  ( 7.440000000000000391, 0.0000000000000000000, 9.439999999999999503 ) ) ;
#52 = DIRECTION ( 'NONE',  ( 1.000000000000000000, 0.0000000000000000000, -0.0000000000000000000 ) ) ;
#53 = AXIS2_PLACEMENT_3D ( 'NONE', #166, #75, #29 ) ;
#54 = LINE ( 'NONE', #241, #81 ) ;
#55 = LINE ( 'NONE', #242, #182 ) ;
#56 = EDGE_LOOP ( 'NONE', ( #129, #190, #100, #261 ) ) ;
#57 = AXIS2_PLACEMENT_3D ( 'NONE', #106, #289, #324 ) ;
#58 = CARTESIAN_POINT ( 'NONE',  ( 7.125000000000000000, 0.0000000000000000000, 9.125000000000000000 ) ) ;
#59 = DIRECTION ( 'NONE',  ( 0.0000000000000000000, 0.0000000000000000000, -1.000000000000000000 ) ) ;
#60 = ORIENTED_EDGE ( 'NONE', *, *, #347, .T. ) ;
#61 = AXIS2_PLACEMENT_3D ( 'NONE', #186, #80, #132 ) ;
#62 =( NAMED_UNIT ( * ) PLANE_ANGLE_UNIT ( ) SI_UNIT ( $, .RADIAN. ) );
#63 =( GEOMETRIC_REPRESENTATION_CONTEXT ( 3 ) GLOBAL_UNCERTAINTY_ASSIGNED_CONTEXT ( ( #231 ) ) GLOBAL_UNIT_ASSIGNED_CONTEXT ( ( #320, #167, #295 ) ) REPRESENTATION_CONTEXT ( 'NONE', 'WORKASPACE' ) );
#64 = CIRCLE ( 'NONE', #315, 0.1250000000000004441 ) ;
#65 = DIRECTION ( 'NONE',  ( 1.000000000000000000, 0.0000000000000000000, 0.0000000000000000000 ) ) ;
#66 = AXIS2_PLACEMENT_3D ( 'NONE', #252, #33, #192 ) ;
#67 = ADVANCED_FACE ( 'NONE', ( #309 ), #46, .T. ) ;
#68 = ORIENTED_EDGE ( 'NONE', *, *, #221, .F. ) ;
#69 = EDGE_CURVE ( 'NONE', #43, #43, #104, .T. ) ;
#70 = CARTESIAN_POINT ( 'NONE',  ( 0.0000000000000000000, 0.0000000000000000000, 9.439999999999999503 ) ) ;
#71 = FACE_BOUND ( 'NONE', #183, .T. ) ;
#72 = ORIENTED_EDGE ( 'NONE', *, *, #194, .T. ) ;
#73 = DIRECTION ( 'NONE',  ( 0.0000000000000000000, 0.0000000000000000000, -1.000000000000000000 ) ) ;
#74 = CYLINDRICAL_SURFACE ( 'NONE', #131, 0.1250000000000004441 ) ;
#75 = DIRECTION ( 'NONE',  ( -0.0000000000000000000, 1.000000000000000000, 0.0000000000000000000 ) ) ;
#76 = CLOSED_SHELL ( 'NONE', ( #42, #154, #282, #283, #276, #127, #67, #124, #177, #121 ) ) ;
#77 = CARTESIAN_POINT ( 'NONE',  ( -7.440000000000000391, -0.07470000000000000251, 9.439999999999999503 ) ) ;
#78 = AXIS2_PLACEMENT_3D ( 'NONE', #287, #232, #73 ) ;
#79 = DIRECTION ( 'NONE',  ( 0.0000000000000000000, -1.000000000000000000, 0.0000000000000000000 ) ) ;
#80 = DIRECTION ( 'NONE',  ( 0.0000000000000000000, 0.0000000000000000000, -1.000000000000000000 ) ) ;
#81 = VECTOR ( 'NONE', #162, 39.37007874015748143 ) ;
#82 = ORIENTED_EDGE ( 'NONE', *, *, #240, .F. ) ;
#83 = AXIS2_PLACEMENT_3D ( 'NONE', #51, #32, #138 ) ;
#84 = EDGE_LOOP ( 'NONE', ( #224 ) ) ;
#85 = CARTESIAN_POINT ( 'NONE',  ( -7.125000000000000000, 0.0000000000000000000, -9.125000000000000000 ) ) ;
#86 = CARTESIAN_POINT ( 'NONE',  ( 7.125000000000000000, -0.07470000000000000251, 8.999999999999998224 ) ) ;
#87 = DIRECTION ( 'NONE',  ( 0.0000000000000000000, 0.0000000000000000000, -1.000000000000000000 ) ) ;
#88 = FILL_AREA_STYLE_COLOUR ( '', #133 ) ;
#89 = LINE ( 'NONE', #253, #159 ) ;
#90 = CARTESIAN_POINT ( 'NONE',  ( -7.125000000000000000, -0.07470000000000000251, 9.125000000000000000 ) ) ;
#91 = CARTESIAN_POINT ( 'NONE',  ( -7.440000000000000391, 0.0000000000000000000, -9.439999999999999503 ) ) ;
#92 = EDGE_CURVE ( 'NONE', #308, #308, #245, .T. ) ;
#93 = VECTOR ( 'NONE', #343, 39.37007874015748143 ) ;
#94 = EDGE_LOOP ( 'NONE', ( #208, #344, #297, #175 ) ) ;
#95 = EDGE_CURVE ( 'NONE', #228, #112, #30, .T. ) ;
#96 = VERTEX_POINT ( 'NONE', #335 ) ;
#97 = MANIFOLD_SOLID_BREP ( 'Imported1', #76 ) ;
#98 = AXIS2_PLACEMENT_3D ( 'NONE', #155, #340, #205 ) ;
#99 = VERTEX_POINT ( 'NONE', #114 ) ;
#100 = ORIENTED_EDGE ( 'NONE', *, *, #126, .T. ) ;
#101 = CARTESIAN_POINT ( 'NONE',  ( 7.440000000000000391, 0.0000000000000000000, 9.439999999999999503 ) ) ;
#102 = DIRECTION ( 'NONE',  ( -0.0000000000000000000, 1.000000000000000000, 0.0000000000000000000 ) ) ;
#103 = FILL_AREA_STYLE ('',( #204 ) ) ;
#104 = CIRCLE ( 'NONE', #78, 0.1250000000000004441 ) ;
#105 = ORIENTED_EDGE ( 'NONE', *, *, #313, .T. ) ;
#106 = CARTESIAN_POINT ( 'NONE',  ( -7.125000000000000000, 0.0000000000000000000, 9.125000000000000000 ) ) ;
#107 = PLANE ( 'NONE',  #83 ) ;
#108 = PRODUCT_DEFINITION_SHAPE ( 'NONE', 'NONE',  #230 ) ;
#109 = FACE_BOUND ( 'NONE', #214, .T. ) ;
#110 = DIRECTION ( 'NONE',  ( 0.0000000000000000000, 0.0000000000000000000, -1.000000000000000000 ) ) ;
#111 = CARTESIAN_POINT ( 'NONE',  ( -7.125000000000000000, -0.07470000000000000251, -9.250000000000000000 ) ) ;
#112 = VERTEX_POINT ( 'NONE', #101 ) ;
#113 = ORIENTED_EDGE ( 'NONE', *, *, #126, .F. ) ;
#114 = CARTESIAN_POINT ( 'NONE',  ( 7.125000000000000000, 0.0000000000000000000, 8.999999999999998224 ) ) ;
#115 = APPLICATION_CONTEXT ( 'automotive_design' ) ;
#116 = DIRECTION ( 'NONE',  ( -1.000000000000000000, 0.0000000000000000000, -0.0000000000000000000 ) ) ;
#117 = SURFACE_STYLE_FILL_AREA ( #144 ) ;
#118 = MECHANICAL_DESIGN_GEOMETRIC_PRESENTATION_REPRESENTATION (  '', ( #27 ), #244 ) ;
#119 = FACE_OUTER_BOUND ( 'NONE', #141, .T. ) ;
#120 =( CONVERSION_BASED_UNIT ( 'INCH', #332 ) LENGTH_UNIT ( ) NAMED_UNIT ( #184 ) );
#121 = ADVANCED_FACE ( 'NONE', ( #302, #3, #49, #71, #119 ), #139, .F. ) ;
#122 = LENGTH_MEASURE_WITH_UNIT ( LENGTH_MEASURE( 0.02539999999999999897 ), #293 );
#123 = UNCERTAINTY_MEASURE_WITH_UNIT (LENGTH_MEASURE( 1.000000000000000082E-05 ), #120, 'distance_accuracy_value', 'NONE');
#124 = ADVANCED_FACE ( 'NONE', ( #149 ), #234, .T. ) ;
#125 = LINE ( 'NONE', #273, #2 ) ;
#126 = EDGE_CURVE ( 'NONE', #265, #96, #338, .T. ) ;
#127 = ADVANCED_FACE ( 'NONE', ( #321 ), #345, .T. ) ;
#128 = FACE_OUTER_BOUND ( 'NONE', #152, .T. ) ;
#129 = ORIENTED_EDGE ( 'NONE', *, *, #50, .F. ) ;
#130 = CARTESIAN_POINT ( 'NONE',  ( 7.440000000000000391, -0.07470000000000000251, 9.439999999999999503 ) ) ;
#131 = AXIS2_PLACEMENT_3D ( 'NONE', #136, #25, #28 ) ;
#132 = DIRECTION ( 'NONE',  ( -1.000000000000000000, 0.0000000000000000000, -0.0000000000000000000 ) ) ;
#133 = COLOUR_RGB ( '',0.7921568627450980005, 0.8196078431372548767, 0.9333333333333333481 ) ;
#134 = EDGE_LOOP ( 'NONE', ( #105 ) ) ;
#135 = UNCERTAINTY_MEASURE_WITH_UNIT (LENGTH_MEASURE( 1.000000000000000082E-05 ), #246, 'distance_accuracy_value', 'NONE');
#136 = CARTESIAN_POINT ( 'NONE',  ( 7.125000000000000000, 0.0000000000000000000, -9.125000000000000000 ) ) ;
#137 = AXIS2_PLACEMENT_3D ( 'NONE', #1, #268, #52 ) ;
#138 = DIRECTION ( 'NONE',  ( 0.0000000000000000000, 0.0000000000000000000, -1.000000000000000000 ) ) ;
#139 = PLANE ( 'NONE',  #53 ) ;
#140 = FACE_OUTER_BOUND ( 'NONE', #292, .T. ) ;
#141 = EDGE_LOOP ( 'NONE', ( #151, #10, #68, #312 ) ) ;
#142 = DIRECTION ( 'NONE',  ( 0.0000000000000000000, -1.000000000000000000, 0.0000000000000000000 ) ) ;
#143 = PRODUCT ( 'SBP-2016-P10', 'SBP-2016-P10', '', ( #328 ) ) ;
#144 = FILL_AREA_STYLE ('',( #88 ) ) ;
#145 = AXIS2_PLACEMENT_3D ( 'NONE', #325, #173, #65 ) ;
#146 = EDGE_LOOP ( 'NONE', ( #165 ) ) ;
#147 = CARTESIAN_POINT ( 'NONE',  ( 7.125000000000000000, 0.0000000000000000000, -9.250000000000000000 ) ) ;
#148 = EDGE_CURVE ( 'NONE', #265, #228, #55, .T. ) ;
#149 = FACE_OUTER_BOUND ( 'NONE', #24, .T. ) ;
#150 = DIMENSIONAL_EXPONENTS ( 1.000000000000000000, 0.0000000000000000000, 0.0000000000000000000, 0.0000000000000000000, 0.0000000000000000000, 0.0000000000000000000, 0.0000000000000000000 ) ;
#151 = ORIENTED_EDGE ( 'NONE', *, *, #333, .F. ) ;
#152 = EDGE_LOOP ( 'NONE', ( #4 ) ) ;
#153 = AXIS2_PLACEMENT_3D ( 'NONE', #85, #79, #110 ) ;
#154 = ADVANCED_FACE ( 'NONE', ( #128, #140 ), #74, .F. ) ;
#155 = CARTESIAN_POINT ( 'NONE',  ( 7.125000000000000000, -0.07470000000000000251, 9.125000000000000000 ) ) ;
#156 = EDGE_LOOP ( 'NONE', ( #288 ) ) ;
#157 = CARTESIAN_POINT ( 'NONE',  ( -7.440000000000000391, 0.0000000000000000000, 9.439999999999999503 ) ) ;
#158 = DIRECTION ( 'NONE',  ( 0.0000000000000000000, 0.0000000000000000000, 1.000000000000000000 ) ) ;
#159 = VECTOR ( 'NONE', #5, 39.37007874015748143 ) ;
#160 = ORIENTED_EDGE ( 'NONE', *, *, #176, .T. ) ;
#161 = CARTESIAN_POINT ( 'NONE',  ( -7.440000000000000391, -0.07470000000000000251, -9.439999999999999503 ) ) ;
#162 = DIRECTION ( 'NONE',  ( -0.0000000000000000000, 0.0000000000000000000, -1.000000000000000000 ) ) ;
#163 = CIRCLE ( 'NONE', #66, 0.1250000000000004441 ) ;
#164 = FACE_BOUND ( 'NONE', #16, .T. ) ;
#165 = ORIENTED_EDGE ( 'NONE', *, *, #313, .F. ) ;
#166 = CARTESIAN_POINT ( 'NONE',  ( 0.0000000000000000000, -0.07470000000000000251, 0.0000000000000000000 ) ) ;
#167 =( NAMED_UNIT ( * ) PLANE_ANGLE_UNIT ( ) SI_UNIT ( $, .RADIAN. ) );
#168 = EDGE_LOOP ( 'NONE', ( #274 ) ) ;
#169 = ORIENTED_EDGE ( 'NONE', *, *, #50, .T. ) ;
#170 = SURFACE_SIDE_STYLE ('',( #117 ) ) ;
#171 = CARTESIAN_POINT ( 'NONE',  ( -7.125000000000000000, -0.07470000000000000251, -9.125000000000000000 ) ) ;
#172 =( LENGTH_UNIT ( ) NAMED_UNIT ( * ) SI_UNIT ( $, .METRE. ) );
#173 = DIRECTION ( 'NONE',  ( 0.0000000000000000000, 0.0000000000000000000, 1.000000000000000000 ) ) ;
#174 = FACE_BOUND ( 'NONE', #168, .T. ) ;
#175 = ORIENTED_EDGE ( 'NONE', *, *, #17, .T. ) ;
#176 = EDGE_CURVE ( 'NONE', #99, #99, #249, .T. ) ;
#177 = ADVANCED_FACE ( 'NONE', ( #41 ), #107, .T. ) ;
#178 = VECTOR ( 'NONE', #116, 39.37007874015748143 ) ;
#179 = VECTOR ( 'NONE', #311, 39.37007874015748143 ) ;
#180 = EDGE_CURVE ( 'NONE', #243, #243, #301, .T. ) ;
#181 = CARTESIAN_POINT ( 'NONE',  ( 0.0000000000000000000, 0.0000000000000000000, 0.0000000000000000000 ) ) ;
#182 = VECTOR ( 'NONE', #319, 39.37007874015748143 ) ;
#183 = EDGE_LOOP ( 'NONE', ( #286 ) ) ;
#184 = DIMENSIONAL_EXPONENTS ( 1.000000000000000000, 0.0000000000000000000, 0.0000000000000000000, 0.0000000000000000000, 0.0000000000000000000, 0.0000000000000000000, 0.0000000000000000000 ) ;
#185 = STYLED_ITEM ( 'NONE', ( #277 ), #206 ) ;
#186 = CARTESIAN_POINT ( 'NONE',  ( 7.440000000000000391, 0.0000000000000000000, -9.439999999999999503 ) ) ;
#187 = CYLINDRICAL_SURFACE ( 'NONE', #217, 0.1250000000000004441 ) ;
#188 =( NAMED_UNIT ( * ) PLANE_ANGLE_UNIT ( ) SI_UNIT ( $, .RADIAN. ) );
#189 = DIRECTION ( 'NONE',  ( -0.0000000000000000000, -1.000000000000000000, 0.0000000000000000000 ) ) ;
#190 = ORIENTED_EDGE ( 'NONE', *, *, #148, .F. ) ;
#191 = CARTESIAN_POINT ( 'NONE',  ( -7.125000000000000000, -0.07470000000000000251, 8.999999999999998224 ) ) ;
#192 = DIRECTION ( 'NONE',  ( 0.0000000000000000000, 0.0000000000000000000, -1.000000000000000000 ) ) ;
#193 =( LENGTH_UNIT ( ) NAMED_UNIT ( * ) SI_UNIT ( $, .METRE. ) );
#194 = EDGE_CURVE ( 'NONE', #296, #296, #270, .T. ) ;
#195 = SHAPE_DEFINITION_REPRESENTATION ( #108, #206 ) ;
#196 = PRESENTATION_STYLE_ASSIGNMENT (( #314 ) ) ;
#197 = PRODUCT_DEFINITION_FORMATION_WITH_SPECIFIED_SOURCE ( 'ANY', '', #143, .NOT_KNOWN. ) ;
#198 = PRODUCT_DEFINITION_CONTEXT ( 'detailed design', #256, 'design' ) ;
#199 = FACE_OUTER_BOUND ( 'NONE', #258, .T. ) ;
#200 = EDGE_LOOP ( 'NONE', ( #14, #23, #169, #267 ) ) ;
#201 = EDGE_CURVE ( 'NONE', #96, #281, #227, .T. ) ;
#202 = DIRECTION ( 'NONE',  ( 0.0000000000000000000, -0.0000000000000000000, 1.000000000000000000 ) ) ;
#203 = COLOUR_RGB ( '',0.7921568627450980005, 0.8196078431372548767, 0.9333333333333333481 ) ;
#204 = FILL_AREA_STYLE_COLOUR ( '', #203 ) ;
#205 = DIRECTION ( 'NONE',  ( 0.0000000000000000000, 0.0000000000000000000, -1.000000000000000000 ) ) ;
#206 = ADVANCED_BREP_SHAPE_REPRESENTATION ( 'SBP-2016-P10', ( #97, #145 ), #63 ) ;
#207 = PRESENTATION_LAYER_ASSIGNMENT (  '', '', ( #27 ) ) ;
#208 = ORIENTED_EDGE ( 'NONE', *, *, #347, .F. ) ;
#209 = DIRECTION ( 'NONE',  ( 0.0000000000000000000, -1.000000000000000000, 0.0000000000000000000 ) ) ;
#210 = CARTESIAN_POINT ( 'NONE',  ( 7.440000000000000391, -0.07470000000000000251, -9.439999999999999503 ) ) ;
#211 = EDGE_CURVE ( 'NONE', #112, #331, #54, .T. ) ;
#212 = CARTESIAN_POINT ( 'NONE',  ( -7.440000000000000391, 0.0000000000000000000, -9.439999999999999503 ) ) ;
#213 = ORIENTED_EDGE ( 'NONE', *, *, #69, .F. ) ;
#214 = EDGE_LOOP ( 'NONE', ( #272 ) ) ;
#215 = DIRECTION ( 'NONE',  ( -0.0000000000000000000, 1.000000000000000000, 0.0000000000000000000 ) ) ;
#216 = DIRECTION ( 'NONE',  ( 0.0000000000000000000, -1.000000000000000000, 0.0000000000000000000 ) ) ;
#217 = AXIS2_PLACEMENT_3D ( 'NONE', #34, #216, #323 ) ;
#218 = CARTESIAN_POINT ( 'NONE',  ( -7.440000000000000391, 0.0000000000000000000, 9.439999999999999503 ) ) ;
#219 = EDGE_LOOP ( 'NONE', ( #31 ) ) ;
#220 = DIRECTION ( 'NONE',  ( -0.0000000000000000000, -1.000000000000000000, -0.0000000000000000000 ) ) ;
#221 = EDGE_CURVE ( 'NONE', #281, #233, #316, .T. ) ;
#222 = CARTESIAN_POINT ( 'NONE',  ( 7.440000000000000391, -0.07470000000000000251, 9.439999999999999503 ) ) ;
#223 = CYLINDRICAL_SURFACE ( 'NONE', #22, 0.1250000000000004441 ) ;
#224 = ORIENTED_EDGE ( 'NONE', *, *, #92, .T. ) ;
#225 = VERTEX_POINT ( 'NONE', #210 ) ;
#226 = DIMENSIONAL_EXPONENTS ( 1.000000000000000000, 0.0000000000000000000, 0.0000000000000000000, 0.0000000000000000000, 0.0000000000000000000, 0.0000000000000000000, 0.0000000000000000000 ) ;
#227 = LINE ( 'NONE', #161, #93 ) ;
#228 = VERTEX_POINT ( 'NONE', #218 ) ;
#229 = AXIS2_PLACEMENT_3D ( 'NONE', #181, #102, #202 ) ;
#230 = PRODUCT_DEFINITION ( 'UNKNOWN', '', #197, #198 ) ;
#231 = UNCERTAINTY_MEASURE_WITH_UNIT (LENGTH_MEASURE( 1.000000000000000082E-05 ), #320, 'distance_accuracy_value', 'NONE');
#232 = DIRECTION ( 'NONE',  ( 0.0000000000000000000, -1.000000000000000000, 0.0000000000000000000 ) ) ;
#233 = VERTEX_POINT ( 'NONE', #222 ) ;
#234 = PLANE ( 'NONE',  #61 ) ;
#235 = LINE ( 'NONE', #130, #179 ) ;
#236 = DIRECTION ( 'NONE',  ( -1.000000000000000000, 0.0000000000000000000, 0.0000000000000000000 ) ) ;
#237 = PRODUCT_RELATED_PRODUCT_CATEGORY ( 'part', '', ( #143 ) ) ;
#238 = EDGE_LOOP ( 'NONE', ( #322, #250, #303, #317 ) ) ;
#239 = SURFACE_SIDE_STYLE ('',( #285 ) ) ;
#240 = EDGE_CURVE ( 'NONE', #342, #342, #290, .T. ) ;
#241 = CARTESIAN_POINT ( 'NONE',  ( 7.440000000000000391, 0.0000000000000000000, 0.0000000000000000000 ) ) ;
#242 = CARTESIAN_POINT ( 'NONE',  ( -7.440000000000000391, 0.0000000000000000000, 0.0000000000000000000 ) ) ;
#243 = VERTEX_POINT ( 'NONE', #294 ) ;
#244 =( GEOMETRIC_REPRESENTATION_CONTEXT ( 3 ) GLOBAL_UNCERTAINTY_ASSIGNED_CONTEXT ( ( #135 ) ) GLOBAL_UNIT_ASSIGNED_CONTEXT ( ( #246, #188, #341 ) ) REPRESENTATION_CONTEXT ( 'NONE', 'WORKASPACE' ) );
#245 = CIRCLE ( 'NONE', #98, 0.1250000000000004441 ) ;
#246 =( CONVERSION_BASED_UNIT ( 'INCH', #122 ) LENGTH_UNIT ( ) NAMED_UNIT ( #150 ) );
#247 = AXIS2_PLACEMENT_3D ( 'NONE', #90, #8, #59 ) ;
#248 = CARTESIAN_POINT ( 'NONE',  ( 7.440000000000000391, 0.0000000000000000000, -9.439999999999999503 ) ) ;
#249 = CIRCLE ( 'NONE', #19, 0.1250000000000004441 ) ;
#250 = ORIENTED_EDGE ( 'NONE', *, *, #95, .T. ) ;
#251 = CARTESIAN_POINT ( 'NONE',  ( -7.125000000000000000, 0.0000000000000000000, 8.999999999999998224 ) ) ;
#252 = CARTESIAN_POINT ( 'NONE',  ( 7.125000000000000000, -0.07470000000000000251, -9.125000000000000000 ) ) ;
#253 = CARTESIAN_POINT ( 'NONE',  ( 0.0000000000000000000, 0.0000000000000000000, -9.439999999999999503 ) ) ;
#254 = FACE_OUTER_BOUND ( 'NONE', #35, .T. ) ;
#255 = ORIENTED_EDGE ( 'NONE', *, *, #176, .F. ) ;
#256 = APPLICATION_CONTEXT ( 'automotive_design' ) ;
#257 = APPLICATION_PROTOCOL_DEFINITION ( 'draft international standard', 'automotive_design', 1998, #256 ) ;
#258 = EDGE_LOOP ( 'NONE', ( #255 ) ) ;
#259 = PRESENTATION_LAYER_ASSIGNMENT (  '', '', ( #185 ) ) ;
#260 = FACE_OUTER_BOUND ( 'NONE', #146, .T. ) ;
#261 = ORIENTED_EDGE ( 'NONE', *, *, #201, .T. ) ;
#262 = DIRECTION ( 'NONE',  ( 1.000000000000000000, 0.0000000000000000000, 0.0000000000000000000 ) ) ;
#263 = MECHANICAL_DESIGN_GEOMETRIC_PRESENTATION_REPRESENTATION (  '', ( #185 ), #40 ) ;
#264 = EDGE_LOOP ( 'NONE', ( #160 ) ) ;
#265 = VERTEX_POINT ( 'NONE', #91 ) ;
#266 = PLANE ( 'NONE',  #229 ) ;
#267 = ORIENTED_EDGE ( 'NONE', *, *, #221, .T. ) ;
#268 = DIRECTION ( 'NONE',  ( 0.0000000000000000000, 0.0000000000000000000, 1.000000000000000000 ) ) ;
#269 = DIRECTION ( 'NONE',  ( 0.0000000000000000000, 0.0000000000000000000, -1.000000000000000000 ) ) ;
#270 = CIRCLE ( 'NONE', #306, 0.1250000000000004441 ) ;
#271 = VECTOR ( 'NONE', #189, 39.37007874015748143 ) ;
#272 = ORIENTED_EDGE ( 'NONE', *, *, #180, .T. ) ;
#273 = CARTESIAN_POINT ( 'NONE',  ( 7.440000000000000391, 0.0000000000000000000, 9.439999999999999503 ) ) ;
#274 = ORIENTED_EDGE ( 'NONE', *, *, #69, .T. ) ;
#275 = CARTESIAN_POINT ( 'NONE',  ( 7.440000000000000391, -0.07470000000000000251, -9.439999999999999503 ) ) ;
#276 = ADVANCED_FACE ( 'NONE', ( #48, #254 ), #9, .F. ) ;
#277 = PRESENTATION_STYLE_ASSIGNMENT (( #304 ) ) ;
#278 = LINE ( 'NONE', #157, #38 ) ;
#279 =( NAMED_UNIT ( * ) SI_UNIT ( $, .STERADIAN. ) SOLID_ANGLE_UNIT ( ) );
#280 = VECTOR ( 'NONE', #346, 39.37007874015748143 ) ;
#281 = VERTEX_POINT ( 'NONE', #6 ) ;
#282 = ADVANCED_FACE ( 'NONE', ( #260, #15 ), #187, .F. ) ;
#283 = ADVANCED_FACE ( 'NONE', ( #329, #199 ), #223, .F. ) ;
#284 = LENGTH_MEASURE_WITH_UNIT ( LENGTH_MEASURE( 0.02539999999999999897 ), #193 );
#285 = SURFACE_STYLE_FILL_AREA ( #103 ) ;
#286 = ORIENTED_EDGE ( 'NONE', *, *, #240, .T. ) ;
#287 = CARTESIAN_POINT ( 'NONE',  ( -7.125000000000000000, 0.0000000000000000000, 9.125000000000000000 ) ) ;
#288 = ORIENTED_EDGE ( 'NONE', *, *, #92, .F. ) ;
#289 = DIRECTION ( 'NONE',  ( 0.0000000000000000000, -1.000000000000000000, 0.0000000000000000000 ) ) ;
#290 = CIRCLE ( 'NONE', #247, 0.1250000000000004441 ) ;
#291 = CARTESIAN_POINT ( 'NONE',  ( 7.125000000000000000, 0.0000000000000000000, 9.125000000000000000 ) ) ;
#292 = EDGE_LOOP ( 'NONE', ( #305 ) ) ;
#293 =( LENGTH_UNIT ( ) NAMED_UNIT ( * ) SI_UNIT ( $, .METRE. ) );
#294 = CARTESIAN_POINT ( 'NONE',  ( -7.125000000000000000, 0.0000000000000000000, -9.250000000000000000 ) ) ;
#295 =( NAMED_UNIT ( * ) SI_UNIT ( $, .STERADIAN. ) SOLID_ANGLE_UNIT ( ) );
#296 = VERTEX_POINT ( 'NONE', #147 ) ;
#297 = ORIENTED_EDGE ( 'NONE', *, *, #307, .F. ) ;
#298 = APPLICATION_PROTOCOL_DEFINITION ( 'draft international standard', 'automotive_design', 1998, #115 ) ;
#299 = EDGE_CURVE ( 'NONE', #337, #337, #163, .T. ) ;
#300 = CARTESIAN_POINT ( 'NONE',  ( 7.125000000000000000, -0.07470000000000000251, -9.250000000000000000 ) ) ;
#301 = CIRCLE ( 'NONE', #153, 0.1250000000000004441 ) ;
#302 = FACE_BOUND ( 'NONE', #219, .T. ) ;
#303 = ORIENTED_EDGE ( 'NONE', *, *, #211, .T. ) ;
#304 = SURFACE_STYLE_USAGE ( .BOTH. , #170 ) ;
#305 = ORIENTED_EDGE ( 'NONE', *, *, #194, .F. ) ;
#306 = AXIS2_PLACEMENT_3D ( 'NONE', #318, #209, #47 ) ;
#307 = EDGE_CURVE ( 'NONE', #233, #112, #125, .T. ) ;
#308 = VERTEX_POINT ( 'NONE', #86 ) ;
#309 = FACE_OUTER_BOUND ( 'NONE', #56, .T. ) ;
#310 = EDGE_CURVE ( 'NONE', #331, #265, #89, .T. ) ;
#311 = DIRECTION ( 'NONE',  ( 0.0000000000000000000, 0.0000000000000000000, -1.000000000000000000 ) ) ;
#312 = ORIENTED_EDGE ( 'NONE', *, *, #201, .F. ) ;
#313 = EDGE_CURVE ( 'NONE', #18, #18, #64, .T. ) ;
#314 = SURFACE_STYLE_USAGE ( .BOTH. , #239 ) ;
#315 = AXIS2_PLACEMENT_3D ( 'NONE', #171, #11, #36 ) ;
#316 = LINE ( 'NONE', #77, #280 ) ;
#317 = ORIENTED_EDGE ( 'NONE', *, *, #310, .T. ) ;
#318 = CARTESIAN_POINT ( 'NONE',  ( 7.125000000000000000, 0.0000000000000000000, -9.125000000000000000 ) ) ;
#319 = DIRECTION ( 'NONE',  ( 0.0000000000000000000, -0.0000000000000000000, 1.000000000000000000 ) ) ;
#320 =( CONVERSION_BASED_UNIT ( 'INCH', #284 ) LENGTH_UNIT ( ) NAMED_UNIT ( #226 ) );
#321 = FACE_OUTER_BOUND ( 'NONE', #200, .T. ) ;
#322 = ORIENTED_EDGE ( 'NONE', *, *, #148, .T. ) ;
#323 = DIRECTION ( 'NONE',  ( 0.0000000000000000000, 0.0000000000000000000, -1.000000000000000000 ) ) ;
#324 = DIRECTION ( 'NONE',  ( 0.0000000000000000000, 0.0000000000000000000, -1.000000000000000000 ) ) ;
#325 = CARTESIAN_POINT ( 'NONE',  ( 0.0000000000000000000, 0.0000000000000000000, 0.0000000000000000000 ) ) ;
#326 = LINE ( 'NONE', #275, #178 ) ;
#327 = VECTOR ( 'NONE', #262, 39.37007874015748143 ) ;
#328 = PRODUCT_CONTEXT ( 'NONE', #115, 'mechanical' ) ;
#329 = FACE_OUTER_BOUND ( 'NONE', #156, .T. ) ;
#330 = FACE_BOUND ( 'NONE', #264, .T. ) ;
#331 = VERTEX_POINT ( 'NONE', #7 ) ;
#332 = LENGTH_MEASURE_WITH_UNIT ( LENGTH_MEASURE( 0.02539999999999999897 ), #172 );
#333 = EDGE_CURVE ( 'NONE', #225, #96, #326, .T. ) ;
#334 = FACE_OUTER_BOUND ( 'NONE', #238, .T. ) ;
#335 = CARTESIAN_POINT ( 'NONE',  ( -7.440000000000000391, -0.07470000000000000251, -9.439999999999999503 ) ) ;
#336 = DIRECTION ( 'NONE',  ( 0.0000000000000000000, -1.000000000000000000, -0.0000000000000000000 ) ) ;
#337 = VERTEX_POINT ( 'NONE', #300 ) ;
#338 = LINE ( 'NONE', #212, #271 ) ;
#339 = ORIENTED_EDGE ( 'NONE', *, *, #180, .F. ) ;
#340 = DIRECTION ( 'NONE',  ( -0.0000000000000000000, 1.000000000000000000, -0.0000000000000000000 ) ) ;
#341 =( NAMED_UNIT ( * ) SI_UNIT ( $, .STERADIAN. ) SOLID_ANGLE_UNIT ( ) );
#342 = VERTEX_POINT ( 'NONE', #191 ) ;
#343 = DIRECTION ( 'NONE',  ( 0.0000000000000000000, 0.0000000000000000000, 1.000000000000000000 ) ) ;
#344 = ORIENTED_EDGE ( 'NONE', *, *, #211, .F. ) ;
#345 = PLANE ( 'NONE',  #137 ) ;
#346 = DIRECTION ( 'NONE',  ( 1.000000000000000000, 0.0000000000000000000, -0.0000000000000000000 ) ) ;
#347 = EDGE_CURVE ( 'NONE', #331, #225, #37, .T. ) ;
ENDSEC;
END-ISO-10303-21;
