ISO-10303-21;
HEADER;
FILE_DESCRIPTION (( 'STEP AP214' ),
    '1' );
FILE_NAME ('SBP-2424-P10.STEP',
    '2019-03-02T20:13:47',
    ( '' ),
    ( '' ),
    'SwSTEP 2.0',
    'SolidWorks 2018',
    '' );
FILE_SCHEMA (( 'AUTOMOTIVE_DESIGN' ));
ENDSEC;

DATA;
#1 = CARTESIAN_POINT ( 'NONE',  ( 10.50000000000000000, 0.0000000000000000000, 10.50000000000000000 ) ) ;
#2 = AXIS2_PLACEMENT_3D ( 'NONE', #212, #216, #316 ) ;
#3 = SURFACE_STYLE_FILL_AREA ( #143 ) ;
#4 = DIRECTION ( 'NONE',  ( 0.0000000000000000000, 1.000000000000000000, 0.0000000000000000000 ) ) ;
#5 = AXIS2_PLACEMENT_3D ( 'NONE', #320, #323, #141 ) ;
#6 = DIRECTION ( 'NONE',  ( -0.0000000000000000000, 1.000000000000000000, 0.0000000000000000000 ) ) ;
#7 = COLOUR_RGB ( '',0.7921568627450980005, 0.8196078431372548767, 0.9333333333333333481 ) ;
#8 = DIRECTION ( 'NONE',  ( 1.000000000000000000, 0.0000000000000000000, 0.0000000000000000000 ) ) ;
#9 = ORIENTED_EDGE ( 'NONE', *, *, #283, .T. ) ;
#10 =( CONVERSION_BASED_UNIT ( 'INCH', #318 ) LENGTH_UNIT ( ) NAMED_UNIT ( #203 ) );
#11 = CARTESIAN_POINT ( 'NONE',  ( 9.625000000000000000, 0.0000000000000000000, -9.625000000000000000 ) ) ;
#12 =( CONVERSION_BASED_UNIT ( 'INCH', #180 ) LENGTH_UNIT ( ) NAMED_UNIT ( #46 ) );
#13 = CARTESIAN_POINT ( 'NONE',  ( -10.50000000000000000, 0.0000000000000000000, 0.0000000000000000000 ) ) ;
#14 = AXIS2_PLACEMENT_3D ( 'NONE', #317, #61, #271 ) ;
#15 = SURFACE_STYLE_FILL_AREA ( #35 ) ;
#16 = DIRECTION ( 'NONE',  ( 0.0000000000000000000, 0.0000000000000000000, 1.000000000000000000 ) ) ;
#17 = ORIENTED_EDGE ( 'NONE', *, *, #155, .F. ) ;
#18 = ADVANCED_FACE ( 'NONE', ( #59 ), #165, .T. ) ;
#19 = ADVANCED_FACE ( 'NONE', ( #282 ), #30, .T. ) ;
#20 = SHAPE_DEFINITION_REPRESENTATION ( #338, #205 ) ;
#21 = EDGE_LOOP ( 'NONE', ( #33 ) ) ;
#22 =( GEOMETRIC_REPRESENTATION_CONTEXT ( 3 ) GLOBAL_UNCERTAINTY_ASSIGNED_CONTEXT ( ( #253 ) ) GLOBAL_UNIT_ASSIGNED_CONTEXT ( ( #10, #64, #139 ) ) REPRESENTATION_CONTEXT ( 'NONE', 'WORKASPACE' ) );
#23 = MANIFOLD_SOLID_BREP ( 'Imported1', #328 ) ;
#24 = ORIENTED_EDGE ( 'NONE', *, *, #91, .T. ) ;
#25 = ADVANCED_FACE ( 'NONE', ( #346, #284, #223, #71, #178 ), #105, .F. ) ;
#26 = DIRECTION ( 'NONE',  ( 0.0000000000000000000, 1.000000000000000000, 0.0000000000000000000 ) ) ;
#27 = LINE ( 'NONE', #187, #103 ) ;
#28 = ORIENTED_EDGE ( 'NONE', *, *, #341, .T. ) ;
#29 = CARTESIAN_POINT ( 'NONE',  ( -10.50000000000000000, -0.07470000000000000251, 10.50000000000000000 ) ) ;
#30 = PLANE ( 'NONE',  #14 ) ;
#31 = PRODUCT_DEFINITION ( 'UNKNOWN', '', #261, #50 ) ;
#32 = DIRECTION ( 'NONE',  ( 0.0000000000000000000, 0.0000000000000000000, 1.000000000000000000 ) ) ;
#33 = ORIENTED_EDGE ( 'NONE', *, *, #341, .F. ) ;
#34 = MECHANICAL_DESIGN_GEOMETRIC_PRESENTATION_REPRESENTATION (  '', ( #310 ), #22 ) ;
#35 = FILL_AREA_STYLE ('',( #146 ) ) ;
#36 = EDGE_CURVE ( 'NONE', #231, #201, #207, .T. ) ;
#37 = DIRECTION ( 'NONE',  ( -1.000000000000000000, 0.0000000000000000000, -0.0000000000000000000 ) ) ;
#38 = CIRCLE ( 'NONE', #85, 0.1560000000000001941 ) ;
#39 = APPLICATION_CONTEXT ( 'automotive_design' ) ;
#40 = ORIENTED_EDGE ( 'NONE', *, *, #133, .T. ) ;
#41 = CARTESIAN_POINT ( 'NONE',  ( 9.625000000000000000, 0.0000000000000000000, 9.625000000000000000 ) ) ;
#42 = DIRECTION ( 'NONE',  ( -1.000000000000000000, -0.0000000000000000000, -0.0000000000000000000 ) ) ;
#43 = CIRCLE ( 'NONE', #188, 0.1560000000000001941 ) ;
#44 = ORIENTED_EDGE ( 'NONE', *, *, #133, .F. ) ;
#45 = EDGE_LOOP ( 'NONE', ( #44 ) ) ;
#46 = DIMENSIONAL_EXPONENTS ( 1.000000000000000000, 0.0000000000000000000, 0.0000000000000000000, 0.0000000000000000000, 0.0000000000000000000, 0.0000000000000000000, 0.0000000000000000000 ) ;
#47 = VERTEX_POINT ( 'NONE', #68 ) ;
#48 = AXIS2_PLACEMENT_3D ( 'NONE', #297, #266, #80 ) ;
#49 = ORIENTED_EDGE ( 'NONE', *, *, #283, .F. ) ;
#50 = PRODUCT_DEFINITION_CONTEXT ( 'detailed design', #220, 'design' ) ;
#51 = FACE_OUTER_BOUND ( 'NONE', #314, .T. ) ;
#52 = EDGE_CURVE ( 'NONE', #47, #344, #183, .T. ) ;
#53 = ORIENTED_EDGE ( 'NONE', *, *, #252, .F. ) ;
#54 = DIRECTION ( 'NONE',  ( 0.0000000000000000000, 1.000000000000000000, 0.0000000000000000000 ) ) ;
#55 = AXIS2_PLACEMENT_3D ( 'NONE', #41, #301, #302 ) ;
#56 = DIRECTION ( 'NONE',  ( -0.0000000000000000000, -1.000000000000000000, 0.0000000000000000000 ) ) ;
#57 = CIRCLE ( 'NONE', #55, 0.1560000000000001941 ) ;
#58 = CARTESIAN_POINT ( 'NONE',  ( -9.625000000000000000, -0.07470000000000000251, -9.625000000000000000 ) ) ;
#59 = FACE_OUTER_BOUND ( 'NONE', #292, .T. ) ;
#60 = DIRECTION ( 'NONE',  ( 0.0000000000000000000, 0.0000000000000000000, 1.000000000000000000 ) ) ;
#61 = DIRECTION ( 'NONE',  ( 0.0000000000000000000, 0.0000000000000000000, -1.000000000000000000 ) ) ;
#62 = CARTESIAN_POINT ( 'NONE',  ( 9.625000000000000000, 0.0000000000000000000, -9.625000000000000000 ) ) ;
#63 = LINE ( 'NONE', #272, #173 ) ;
#64 =( NAMED_UNIT ( * ) PLANE_ANGLE_UNIT ( ) SI_UNIT ( $, .RADIAN. ) );
#65 = ORIENTED_EDGE ( 'NONE', *, *, #237, .F. ) ;
#66 = CARTESIAN_POINT ( 'NONE',  ( -10.50000000000000000, 0.0000000000000000000, 10.50000000000000000 ) ) ;
#67 = DIRECTION ( 'NONE',  ( -0.0000000000000000000, 1.000000000000000000, 0.0000000000000000000 ) ) ;
#68 = CARTESIAN_POINT ( 'NONE',  ( -10.50000000000000000, 0.0000000000000000000, -10.50000000000000000 ) ) ;
#69 = AXIS2_PLACEMENT_3D ( 'NONE', #294, #327, #221 ) ;
#70 = VERTEX_POINT ( 'NONE', #218 ) ;
#71 = FACE_BOUND ( 'NONE', #347, .T. ) ;
#72 = ORIENTED_EDGE ( 'NONE', *, *, #257, .F. ) ;
#73 = CYLINDRICAL_SURFACE ( 'NONE', #214, 0.1560000000000001941 ) ;
#74 = EDGE_LOOP ( 'NONE', ( #17 ) ) ;
#75 = EDGE_CURVE ( 'NONE', #231, #47, #108, .T. ) ;
#76 = AXIS2_PLACEMENT_3D ( 'NONE', #110, #270, #186 ) ;
#77 = CIRCLE ( 'NONE', #229, 0.1560000000000001941 ) ;
#78 = FACE_OUTER_BOUND ( 'NONE', #337, .T. ) ;
#79 = EDGE_LOOP ( 'NONE', ( #104, #49, #263, #72 ) ) ;
#80 = DIRECTION ( 'NONE',  ( 0.0000000000000000000, 0.0000000000000000000, 1.000000000000000000 ) ) ;
#81 = LINE ( 'NONE', #265, #107 ) ;
#82 = AXIS2_PLACEMENT_3D ( 'NONE', #211, #4, #60 ) ;
#83 = LINE ( 'NONE', #120, #343 ) ;
#84 = DIRECTION ( 'NONE',  ( 0.0000000000000000000, 1.000000000000000000, 0.0000000000000000000 ) ) ;
#85 = AXIS2_PLACEMENT_3D ( 'NONE', #94, #245, #280 ) ;
#86 = DIRECTION ( 'NONE',  ( -0.0000000000000000000, 0.0000000000000000000, -1.000000000000000000 ) ) ;
#87 = FACE_OUTER_BOUND ( 'NONE', #74, .T. ) ;
#88 = DIRECTION ( 'NONE',  ( 1.000000000000000000, -0.0000000000000000000, 0.0000000000000000000 ) ) ;
#89 = ORIENTED_EDGE ( 'NONE', *, *, #230, .T. ) ;
#90 = PRODUCT_CONTEXT ( 'NONE', #39, 'mechanical' ) ;
#91 = EDGE_CURVE ( 'NONE', #291, #195, #100, .T. ) ;
#92 = DIRECTION ( 'NONE',  ( -0.0000000000000000000, -1.000000000000000000, -0.0000000000000000000 ) ) ;
#93 = FACE_OUTER_BOUND ( 'NONE', #198, .T. ) ;
#94 = CARTESIAN_POINT ( 'NONE',  ( 9.625000000000000000, -0.07470000000000000251, 9.625000000000000000 ) ) ;
#95 = ORIENTED_EDGE ( 'NONE', *, *, #335, .T. ) ;
#96 = CYLINDRICAL_SURFACE ( 'NONE', #76, 0.1560000000000001941 ) ;
#97 = VECTOR ( 'NONE', #174, 39.37007874015748143 ) ;
#98 = ADVANCED_FACE ( 'NONE', ( #157 ), #278, .T. ) ;
#99 = AXIS2_PLACEMENT_3D ( 'NONE', #116, #16, #171 ) ;
#100 = LINE ( 'NONE', #249, #135 ) ;
#101 = ORIENTED_EDGE ( 'NONE', *, *, #289, .T. ) ;
#102 = AXIS2_PLACEMENT_3D ( 'NONE', #162, #26, #32 ) ;
#103 = VECTOR ( 'NONE', #298, 39.37007874015748143 ) ;
#104 = ORIENTED_EDGE ( 'NONE', *, *, #119, .F. ) ;
#105 = PLANE ( 'NONE',  #69 ) ;
#106 = DIRECTION ( 'NONE',  ( 0.0000000000000000000, 0.0000000000000000000, 1.000000000000000000 ) ) ;
#107 = VECTOR ( 'NONE', #164, 39.37007874015748143 ) ;
#108 = LINE ( 'NONE', #330, #299 ) ;
#109 = ORIENTED_EDGE ( 'NONE', *, *, #335, .F. ) ;
#110 = CARTESIAN_POINT ( 'NONE',  ( -9.625000000000000000, 0.0000000000000000000, 9.625000000000000000 ) ) ;
#111 =( LENGTH_UNIT ( ) NAMED_UNIT ( * ) SI_UNIT ( $, .METRE. ) );
#112 = FILL_AREA_STYLE_COLOUR ( '', #7 ) ;
#113 = CARTESIAN_POINT ( 'NONE',  ( -9.625000000000000000, -0.07470000000000000251, 9.781000000000000583 ) ) ;
#114 = DIRECTION ( 'NONE',  ( -0.0000000000000000000, -1.000000000000000000, -0.0000000000000000000 ) ) ;
#115 = EDGE_LOOP ( 'NONE', ( #65 ) ) ;
#116 = CARTESIAN_POINT ( 'NONE',  ( -10.50000000000000000, 0.0000000000000000000, 10.50000000000000000 ) ) ;
#117 = SURFACE_SIDE_STYLE ('',( #15 ) ) ;
#118 = DIRECTION ( 'NONE',  ( 0.0000000000000000000, 0.0000000000000000000, 1.000000000000000000 ) ) ;
#119 = EDGE_CURVE ( 'NONE', #201, #300, #83, .T. ) ;
#120 = CARTESIAN_POINT ( 'NONE',  ( 10.50000000000000000, -0.07470000000000000251, -10.50000000000000000 ) ) ;
#121 = VERTEX_POINT ( 'NONE', #145 ) ;
#122 = ORIENTED_EDGE ( 'NONE', *, *, #52, .T. ) ;
#123 = ORIENTED_EDGE ( 'NONE', *, *, #127, .F. ) ;
#124 = PRODUCT_RELATED_PRODUCT_CATEGORY ( 'part', '', ( #151 ) ) ;
#125 = VERTEX_POINT ( 'NONE', #113 ) ;
#126 = ORIENTED_EDGE ( 'NONE', *, *, #127, .T. ) ;
#127 = EDGE_CURVE ( 'NONE', #344, #158, #304, .T. ) ;
#128 = AXIS2_PLACEMENT_3D ( 'NONE', #11, #281, #118 ) ;
#129 = LINE ( 'NONE', #138, #153 ) ;
#130 = FACE_OUTER_BOUND ( 'NONE', #181, .T. ) ;
#131 = ADVANCED_FACE ( 'NONE', ( #78, #268 ), #274, .F. ) ;
#132 = ORIENTED_EDGE ( 'NONE', *, *, #75, .T. ) ;
#133 = EDGE_CURVE ( 'NONE', #125, #125, #197, .T. ) ;
#134 = VERTEX_POINT ( 'NONE', #222 ) ;
#135 = VECTOR ( 'NONE', #67, 39.37007874015748143 ) ;
#136 = DIRECTION ( 'NONE',  ( -0.0000000000000000000, -1.000000000000000000, -0.0000000000000000000 ) ) ;
#137 = EDGE_LOOP ( 'NONE', ( #319 ) ) ;
#138 = CARTESIAN_POINT ( 'NONE',  ( 10.50000000000000000, -0.07470000000000000251, 10.50000000000000000 ) ) ;
#139 =( NAMED_UNIT ( * ) SI_UNIT ( $, .STERADIAN. ) SOLID_ANGLE_UNIT ( ) );
#140 = CARTESIAN_POINT ( 'NONE',  ( 10.50000000000000000, 0.0000000000000000000, 0.0000000000000000000 ) ) ;
#141 = DIRECTION ( 'NONE',  ( 0.0000000000000000000, 0.0000000000000000000, 1.000000000000000000 ) ) ;
#142 =( LENGTH_UNIT ( ) NAMED_UNIT ( * ) SI_UNIT ( $, .METRE. ) );
#143 = FILL_AREA_STYLE ('',( #112 ) ) ;
#144 = ORIENTED_EDGE ( 'NONE', *, *, #119, .T. ) ;
#145 = CARTESIAN_POINT ( 'NONE',  ( 9.625000000000000000, 0.0000000000000000000, -9.468999999999999417 ) ) ;
#146 = FILL_AREA_STYLE_COLOUR ( '', #339 ) ;
#147 = CARTESIAN_POINT ( 'NONE',  ( -10.50000000000000000, 0.0000000000000000000, 10.50000000000000000 ) ) ;
#148 = CARTESIAN_POINT ( 'NONE',  ( 10.50000000000000000, 0.0000000000000000000, 10.50000000000000000 ) ) ;
#149 = CARTESIAN_POINT ( 'NONE',  ( 10.50000000000000000, 0.0000000000000000000, -10.50000000000000000 ) ) ;
#150 =( NAMED_UNIT ( * ) SI_UNIT ( $, .STERADIAN. ) SOLID_ANGLE_UNIT ( ) );
#151 = PRODUCT ( 'SBP-2424-P10', 'SBP-2424-P10', '', ( #90 ) ) ;
#152 = ORIENTED_EDGE ( 'NONE', *, *, #155, .T. ) ;
#153 = VECTOR ( 'NONE', #213, 39.37007874015748143 ) ;
#154 = EDGE_LOOP ( 'NONE', ( #40 ) ) ;
#155 = EDGE_CURVE ( 'NONE', #134, #134, #43, .T. ) ;
#156 = ADVANCED_FACE ( 'NONE', ( #87, #130 ), #73, .F. ) ;
#157 = FACE_OUTER_BOUND ( 'NONE', #255, .T. ) ;
#158 = VERTEX_POINT ( 'NONE', #29 ) ;
#159 = EDGE_CURVE ( 'NONE', #334, #334, #313, .T. ) ;
#160 = DIRECTION ( 'NONE',  ( 0.0000000000000000000, 0.0000000000000000000, 1.000000000000000000 ) ) ;
#161 = VECTOR ( 'NONE', #86, 39.37007874015748143 ) ;
#162 = CARTESIAN_POINT ( 'NONE',  ( 9.625000000000000000, -0.07470000000000000251, -9.625000000000000000 ) ) ;
#163 = PRESENTATION_LAYER_ASSIGNMENT (  '', '', ( #269 ) ) ;
#164 = DIRECTION ( 'NONE',  ( 1.000000000000000000, 0.0000000000000000000, -0.0000000000000000000 ) ) ;
#165 = PLANE ( 'NONE',  #5 ) ;
#166 = DIRECTION ( 'NONE',  ( 1.000000000000000000, 0.0000000000000000000, 0.0000000000000000000 ) ) ;
#167 = ORIENTED_EDGE ( 'NONE', *, *, #36, .T. ) ;
#168 = APPLICATION_PROTOCOL_DEFINITION ( 'draft international standard', 'automotive_design', 1998, #39 ) ;
#169 = SURFACE_STYLE_USAGE ( .BOTH. , #238 ) ;
#170 = APPLICATION_PROTOCOL_DEFINITION ( 'draft international standard', 'automotive_design', 1998, #220 ) ;
#171 = DIRECTION ( 'NONE',  ( 1.000000000000000000, 0.0000000000000000000, -0.0000000000000000000 ) ) ;
#172 =( LENGTH_UNIT ( ) NAMED_UNIT ( * ) SI_UNIT ( $, .METRE. ) );
#173 = VECTOR ( 'NONE', #166, 39.37007874015748143 ) ;
#174 = DIRECTION ( 'NONE',  ( 0.0000000000000000000, -1.000000000000000000, -0.0000000000000000000 ) ) ;
#175 = ORIENTED_EDGE ( 'NONE', *, *, #252, .T. ) ;
#176 = EDGE_CURVE ( 'NONE', #47, #300, #290, .T. ) ;
#177 = UNCERTAINTY_MEASURE_WITH_UNIT (LENGTH_MEASURE( 1.000000000000000082E-05 ), #12, 'distance_accuracy_value', 'NONE');
#178 = FACE_OUTER_BOUND ( 'NONE', #79, .T. ) ;
#179 = ORIENTED_EDGE ( 'NONE', *, *, #296, .F. ) ;
#180 = LENGTH_MEASURE_WITH_UNIT ( LENGTH_MEASURE( 0.02539999999999999897 ), #172 );
#181 = EDGE_LOOP ( 'NONE', ( #53 ) ) ;
#182 = FACE_OUTER_BOUND ( 'NONE', #184, .T. ) ;
#183 = LINE ( 'NONE', #13, #224 ) ;
#184 = EDGE_LOOP ( 'NONE', ( #308, #209, #276, #9 ) ) ;
#185 = EDGE_LOOP ( 'NONE', ( #101 ) ) ;
#186 = DIRECTION ( 'NONE',  ( 0.0000000000000000000, 0.0000000000000000000, 1.000000000000000000 ) ) ;
#187 = CARTESIAN_POINT ( 'NONE',  ( -10.50000000000000000, -0.07470000000000000251, -10.50000000000000000 ) ) ;
#188 = AXIS2_PLACEMENT_3D ( 'NONE', #58, #54, #106 ) ;
#189 = PLANE ( 'NONE',  #202 ) ;
#190 = ORIENTED_EDGE ( 'NONE', *, *, #159, .T. ) ;
#191 = DIRECTION ( 'NONE',  ( 0.0000000000000000000, -0.0000000000000000000, 1.000000000000000000 ) ) ;
#192 = CARTESIAN_POINT ( 'NONE',  ( 9.625000000000000000, -0.07470000000000000251, 9.781000000000000583 ) ) ;
#193 = FACE_OUTER_BOUND ( 'NONE', #115, .T. ) ;
#194 = CARTESIAN_POINT ( 'NONE',  ( -9.625000000000000000, 0.0000000000000000000, -9.468999999999999417 ) ) ;
#195 = VERTEX_POINT ( 'NONE', #1 ) ;
#196 = CIRCLE ( 'NONE', #332, 0.1560000000000001941 ) ;
#197 = CIRCLE ( 'NONE', #82, 0.1560000000000001941 ) ;
#198 = EDGE_LOOP ( 'NONE', ( #179 ) ) ;
#199 = EDGE_CURVE ( 'NONE', #158, #291, #81, .T. ) ;
#200 = FACE_OUTER_BOUND ( 'NONE', #45, .T. ) ;
#201 = VERTEX_POINT ( 'NONE', #295 ) ;
#202 = AXIS2_PLACEMENT_3D ( 'NONE', #321, #6, #191 ) ;
#203 = DIMENSIONAL_EXPONENTS ( 1.000000000000000000, 0.0000000000000000000, 0.0000000000000000000, 0.0000000000000000000, 0.0000000000000000000, 0.0000000000000000000, 0.0000000000000000000 ) ;
#204 = ORIENTED_EDGE ( 'NONE', *, *, #176, .F. ) ;
#205 = ADVANCED_BREP_SHAPE_REPRESENTATION ( 'SBP-2424-P10', ( #23, #306 ), #210 ) ;
#206 = ADVANCED_FACE ( 'NONE', ( #200, #193 ), #96, .F. ) ;
#207 = LINE ( 'NONE', #149, #251 ) ;
#208 = DIMENSIONAL_EXPONENTS ( 1.000000000000000000, 0.0000000000000000000, 0.0000000000000000000, 0.0000000000000000000, 0.0000000000000000000, 0.0000000000000000000, 0.0000000000000000000 ) ;
#209 = ORIENTED_EDGE ( 'NONE', *, *, #230, .F. ) ;
#210 =( GEOMETRIC_REPRESENTATION_CONTEXT ( 3 ) GLOBAL_UNCERTAINTY_ASSIGNED_CONTEXT ( ( #242 ) ) GLOBAL_UNIT_ASSIGNED_CONTEXT ( ( #219, #305, #150 ) ) REPRESENTATION_CONTEXT ( 'NONE', 'WORKASPACE' ) );
#211 = CARTESIAN_POINT ( 'NONE',  ( -9.625000000000000000, -0.07470000000000000251, 9.625000000000000000 ) ) ;
#212 = CARTESIAN_POINT ( 'NONE',  ( 9.625000000000000000, 0.0000000000000000000, 9.625000000000000000 ) ) ;
#213 = DIRECTION ( 'NONE',  ( 0.0000000000000000000, 0.0000000000000000000, -1.000000000000000000 ) ) ;
#214 = AXIS2_PLACEMENT_3D ( 'NONE', #333, #84, #236 ) ;
#215 = CARTESIAN_POINT ( 'NONE',  ( 10.50000000000000000, 0.0000000000000000000, -10.50000000000000000 ) ) ;
#216 = DIRECTION ( 'NONE',  ( 0.0000000000000000000, 1.000000000000000000, 0.0000000000000000000 ) ) ;
#217 = EDGE_LOOP ( 'NONE', ( #336 ) ) ;
#218 = CARTESIAN_POINT ( 'NONE',  ( 9.625000000000000000, 0.0000000000000000000, 9.781000000000000583 ) ) ;
#219 =( CONVERSION_BASED_UNIT ( 'INCH', #342 ) LENGTH_UNIT ( ) NAMED_UNIT ( #208 ) );
#220 = APPLICATION_CONTEXT ( 'automotive_design' ) ;
#221 = DIRECTION ( 'NONE',  ( 0.0000000000000000000, -0.0000000000000000000, 1.000000000000000000 ) ) ;
#222 = CARTESIAN_POINT ( 'NONE',  ( -9.625000000000000000, -0.07470000000000000251, -9.468999999999999417 ) ) ;
#223 = FACE_BOUND ( 'NONE', #273, .T. ) ;
#224 = VECTOR ( 'NONE', #279, 39.37007874015748143 ) ;
#225 = ORIENTED_EDGE ( 'NONE', *, *, #257, .T. ) ;
#226 = AXIS2_PLACEMENT_3D ( 'NONE', #148, #88, #275 ) ;
#227 = LINE ( 'NONE', #140, #161 ) ;
#228 = ORIENTED_EDGE ( 'NONE', *, *, #176, .T. ) ;
#229 = AXIS2_PLACEMENT_3D ( 'NONE', #62, #92, #248 ) ;
#230 = EDGE_CURVE ( 'NONE', #195, #231, #227, .T. ) ;
#231 = VERTEX_POINT ( 'NONE', #215 ) ;
#232 = ORIENTED_EDGE ( 'NONE', *, *, #52, .F. ) ;
#233 = FACE_OUTER_BOUND ( 'NONE', #21, .T. ) ;
#234 = VECTOR ( 'NONE', #56, 39.37007874015748143 ) ;
#235 = CARTESIAN_POINT ( 'NONE',  ( -10.50000000000000000, 0.0000000000000000000, -10.50000000000000000 ) ) ;
#236 = DIRECTION ( 'NONE',  ( 0.0000000000000000000, 0.0000000000000000000, 1.000000000000000000 ) ) ;
#237 = EDGE_CURVE ( 'NONE', #250, #250, #196, .T. ) ;
#238 = SURFACE_SIDE_STYLE ('',( #3 ) ) ;
#239 = FACE_BOUND ( 'NONE', #185, .T. ) ;
#240 = PRESENTATION_STYLE_ASSIGNMENT (( #169 ) ) ;
#241 = EDGE_LOOP ( 'NONE', ( #175 ) ) ;
#242 = UNCERTAINTY_MEASURE_WITH_UNIT (LENGTH_MEASURE( 1.000000000000000082E-05 ), #219, 'distance_accuracy_value', 'NONE');
#243 = CARTESIAN_POINT ( 'NONE',  ( 9.625000000000000000, -0.07470000000000000251, -9.468999999999999417 ) ) ;
#244 =( NAMED_UNIT ( * ) SI_UNIT ( $, .STERADIAN. ) SOLID_ANGLE_UNIT ( ) );
#245 = DIRECTION ( 'NONE',  ( 0.0000000000000000000, 1.000000000000000000, 0.0000000000000000000 ) ) ;
#246 = EDGE_LOOP ( 'NONE', ( #28 ) ) ;
#247 =( NAMED_UNIT ( * ) PLANE_ANGLE_UNIT ( ) SI_UNIT ( $, .RADIAN. ) );
#248 = DIRECTION ( 'NONE',  ( 0.0000000000000000000, 0.0000000000000000000, 1.000000000000000000 ) ) ;
#249 = CARTESIAN_POINT ( 'NONE',  ( 10.50000000000000000, 0.0000000000000000000, 10.50000000000000000 ) ) ;
#250 = VERTEX_POINT ( 'NONE', #277 ) ;
#251 = VECTOR ( 'NONE', #114, 39.37007874015748143 ) ;
#252 = EDGE_CURVE ( 'NONE', #312, #312, #326, .T. ) ;
#253 = UNCERTAINTY_MEASURE_WITH_UNIT (LENGTH_MEASURE( 1.000000000000000082E-05 ), #10, 'distance_accuracy_value', 'NONE');
#254 = VERTEX_POINT ( 'NONE', #192 ) ;
#255 = EDGE_LOOP ( 'NONE', ( #24, #109, #126, #259 ) ) ;
#256 = MECHANICAL_DESIGN_GEOMETRIC_PRESENTATION_REPRESENTATION (  '', ( #269 ), #288 ) ;
#257 = EDGE_CURVE ( 'NONE', #300, #158, #27, .T. ) ;
#258 = FACE_BOUND ( 'NONE', #241, .T. ) ;
#259 = ORIENTED_EDGE ( 'NONE', *, *, #199, .T. ) ;
#260 = ADVANCED_FACE ( 'NONE', ( #93, #233 ), #267, .F. ) ;
#261 = PRODUCT_DEFINITION_FORMATION_WITH_SPECIFIED_SOURCE ( 'ANY', '', #151, .NOT_KNOWN. ) ;
#262 = FACE_BOUND ( 'NONE', #217, .T. ) ;
#263 = ORIENTED_EDGE ( 'NONE', *, *, #199, .F. ) ;
#264 = CARTESIAN_POINT ( 'NONE',  ( -10.50000000000000000, -0.07470000000000000251, -10.50000000000000000 ) ) ;
#265 = CARTESIAN_POINT ( 'NONE',  ( -10.50000000000000000, -0.07470000000000000251, 10.50000000000000000 ) ) ;
#266 = DIRECTION ( 'NONE',  ( -0.0000000000000000000, -1.000000000000000000, -0.0000000000000000000 ) ) ;
#267 = CYLINDRICAL_SURFACE ( 'NONE', #2, 0.1560000000000001941 ) ;
#268 = FACE_OUTER_BOUND ( 'NONE', #137, .T. ) ;
#269 = STYLED_ITEM ( 'NONE', ( #286 ), #205 ) ;
#270 = DIRECTION ( 'NONE',  ( 0.0000000000000000000, 1.000000000000000000, 0.0000000000000000000 ) ) ;
#271 = DIRECTION ( 'NONE',  ( -1.000000000000000000, 0.0000000000000000000, -0.0000000000000000000 ) ) ;
#272 = CARTESIAN_POINT ( 'NONE',  ( 0.0000000000000000000, 0.0000000000000000000, 10.50000000000000000 ) ) ;
#273 = EDGE_LOOP ( 'NONE', ( #311 ) ) ;
#274 = CYLINDRICAL_SURFACE ( 'NONE', #128, 0.1560000000000001941 ) ;
#275 = DIRECTION ( 'NONE',  ( 0.0000000000000000000, 0.0000000000000000000, -1.000000000000000000 ) ) ;
#276 = ORIENTED_EDGE ( 'NONE', *, *, #91, .F. ) ;
#277 = CARTESIAN_POINT ( 'NONE',  ( -9.625000000000000000, 0.0000000000000000000, 9.781000000000000583 ) ) ;
#278 = PLANE ( 'NONE',  #99 ) ;
#279 = DIRECTION ( 'NONE',  ( 0.0000000000000000000, -0.0000000000000000000, 1.000000000000000000 ) ) ;
#280 = DIRECTION ( 'NONE',  ( 0.0000000000000000000, 0.0000000000000000000, 1.000000000000000000 ) ) ;
#281 = DIRECTION ( 'NONE',  ( 0.0000000000000000000, 1.000000000000000000, 0.0000000000000000000 ) ) ;
#282 = FACE_OUTER_BOUND ( 'NONE', #309, .T. ) ;
#283 = EDGE_CURVE ( 'NONE', #291, #201, #129, .T. ) ;
#284 = FACE_BOUND ( 'NONE', #154, .T. ) ;
#285 = ADVANCED_FACE ( 'NONE', ( #258, #262, #307, #239, #51 ), #189, .T. ) ;
#286 = PRESENTATION_STYLE_ASSIGNMENT (( #329 ) ) ;
#287 = ORIENTED_EDGE ( 'NONE', *, *, #75, .F. ) ;
#288 =( GEOMETRIC_REPRESENTATION_CONTEXT ( 3 ) GLOBAL_UNCERTAINTY_ASSIGNED_CONTEXT ( ( #177 ) ) GLOBAL_UNIT_ASSIGNED_CONTEXT ( ( #12, #247, #244 ) ) REPRESENTATION_CONTEXT ( 'NONE', 'WORKASPACE' ) );
#289 = EDGE_CURVE ( 'NONE', #121, #121, #77, .T. ) ;
#290 = LINE ( 'NONE', #235, #234 ) ;
#291 = VERTEX_POINT ( 'NONE', #303 ) ;
#292 = EDGE_LOOP ( 'NONE', ( #123, #232, #228, #225 ) ) ;
#293 = CARTESIAN_POINT ( 'NONE',  ( -9.625000000000000000, 0.0000000000000000000, 9.625000000000000000 ) ) ;
#294 = CARTESIAN_POINT ( 'NONE',  ( 0.0000000000000000000, -0.07470000000000000251, 0.0000000000000000000 ) ) ;
#295 = CARTESIAN_POINT ( 'NONE',  ( 10.50000000000000000, -0.07470000000000000251, -10.50000000000000000 ) ) ;
#296 = EDGE_CURVE ( 'NONE', #254, #254, #38, .T. ) ;
#297 = CARTESIAN_POINT ( 'NONE',  ( -9.625000000000000000, 0.0000000000000000000, -9.625000000000000000 ) ) ;
#298 = DIRECTION ( 'NONE',  ( 0.0000000000000000000, 0.0000000000000000000, 1.000000000000000000 ) ) ;
#299 = VECTOR ( 'NONE', #42, 39.37007874015748143 ) ;
#300 = VERTEX_POINT ( 'NONE', #264 ) ;
#301 = DIRECTION ( 'NONE',  ( -0.0000000000000000000, -1.000000000000000000, -0.0000000000000000000 ) ) ;
#302 = DIRECTION ( 'NONE',  ( 0.0000000000000000000, 0.0000000000000000000, 1.000000000000000000 ) ) ;
#303 = CARTESIAN_POINT ( 'NONE',  ( 10.50000000000000000, -0.07470000000000000251, 10.50000000000000000 ) ) ;
#304 = LINE ( 'NONE', #147, #97 ) ;
#305 =( NAMED_UNIT ( * ) PLANE_ANGLE_UNIT ( ) SI_UNIT ( $, .RADIAN. ) );
#306 = AXIS2_PLACEMENT_3D ( 'NONE', #324, #331, #8 ) ;
#307 = FACE_BOUND ( 'NONE', #246, .T. ) ;
#308 = ORIENTED_EDGE ( 'NONE', *, *, #36, .F. ) ;
#309 = EDGE_LOOP ( 'NONE', ( #204, #287, #167, #144 ) ) ;
#310 = STYLED_ITEM ( 'NONE', ( #240 ), #23 ) ;
#311 = ORIENTED_EDGE ( 'NONE', *, *, #296, .T. ) ;
#312 = VERTEX_POINT ( 'NONE', #194 ) ;
#313 = CIRCLE ( 'NONE', #102, 0.1560000000000001941 ) ;
#314 = EDGE_LOOP ( 'NONE', ( #122, #95, #89, #132 ) ) ;
#315 = EDGE_LOOP ( 'NONE', ( #152 ) ) ;
#316 = DIRECTION ( 'NONE',  ( 0.0000000000000000000, 0.0000000000000000000, 1.000000000000000000 ) ) ;
#317 = CARTESIAN_POINT ( 'NONE',  ( 10.50000000000000000, 0.0000000000000000000, -10.50000000000000000 ) ) ;
#318 = LENGTH_MEASURE_WITH_UNIT ( LENGTH_MEASURE( 0.02539999999999999897 ), #111 );
#319 = ORIENTED_EDGE ( 'NONE', *, *, #289, .F. ) ;
#320 = CARTESIAN_POINT ( 'NONE',  ( -10.50000000000000000, 0.0000000000000000000, -10.50000000000000000 ) ) ;
#321 = CARTESIAN_POINT ( 'NONE',  ( 0.0000000000000000000, 0.0000000000000000000, 0.0000000000000000000 ) ) ;
#322 = PLANE ( 'NONE',  #226 ) ;
#323 = DIRECTION ( 'NONE',  ( -1.000000000000000000, 0.0000000000000000000, 0.0000000000000000000 ) ) ;
#324 = CARTESIAN_POINT ( 'NONE',  ( 0.0000000000000000000, 0.0000000000000000000, 0.0000000000000000000 ) ) ;
#325 = PRESENTATION_LAYER_ASSIGNMENT (  '', '', ( #310 ) ) ;
#326 = CIRCLE ( 'NONE', #48, 0.1560000000000001941 ) ;
#327 = DIRECTION ( 'NONE',  ( -0.0000000000000000000, 1.000000000000000000, 0.0000000000000000000 ) ) ;
#328 = CLOSED_SHELL ( 'NONE', ( #285, #156, #206, #260, #131, #98, #18, #19, #345, #25 ) ) ;
#329 = SURFACE_STYLE_USAGE ( .BOTH. , #117 ) ;
#330 = CARTESIAN_POINT ( 'NONE',  ( 0.0000000000000000000, 0.0000000000000000000, -10.50000000000000000 ) ) ;
#331 = DIRECTION ( 'NONE',  ( 0.0000000000000000000, 0.0000000000000000000, 1.000000000000000000 ) ) ;
#332 = AXIS2_PLACEMENT_3D ( 'NONE', #293, #136, #160 ) ;
#333 = CARTESIAN_POINT ( 'NONE',  ( -9.625000000000000000, 0.0000000000000000000, -9.625000000000000000 ) ) ;
#334 = VERTEX_POINT ( 'NONE', #243 ) ;
#335 = EDGE_CURVE ( 'NONE', #344, #195, #63, .T. ) ;
#336 = ORIENTED_EDGE ( 'NONE', *, *, #237, .T. ) ;
#337 = EDGE_LOOP ( 'NONE', ( #340 ) ) ;
#338 = PRODUCT_DEFINITION_SHAPE ( 'NONE', 'NONE',  #31 ) ;
#339 = COLOUR_RGB ( '',0.7921568627450980005, 0.8196078431372548767, 0.9333333333333333481 ) ;
#340 = ORIENTED_EDGE ( 'NONE', *, *, #159, .F. ) ;
#341 = EDGE_CURVE ( 'NONE', #70, #70, #57, .T. ) ;
#342 = LENGTH_MEASURE_WITH_UNIT ( LENGTH_MEASURE( 0.02539999999999999897 ), #142 );
#343 = VECTOR ( 'NONE', #37, 39.37007874015748143 ) ;
#344 = VERTEX_POINT ( 'NONE', #66 ) ;
#345 = ADVANCED_FACE ( 'NONE', ( #182 ), #322, .T. ) ;
#346 = FACE_BOUND ( 'NONE', #315, .T. ) ;
#347 = EDGE_LOOP ( 'NONE', ( #190 ) ) ;
ENDSEC;
END-ISO-10303-21;
