ISO-10303-21;
HEADER;
FILE_DESCRIPTION (( 'STEP AP214' ),
    '1' );
FILE_NAME ('SBP-2424-XXL-P10.STEP',
    '2019-03-02T20:16:08',
    ( '' ),
    ( '' ),
    'SwSTEP 2.0',
    'SolidWorks 2018',
    '' );
FILE_SCHEMA (( 'AUTOMOTIVE_DESIGN' ));
ENDSEC;

DATA;
#1 = PRODUCT_DEFINITION_CONTEXT ( 'detailed design', #343, 'design' ) ;
#2 = CYLINDRICAL_SURFACE ( 'NONE', #247, 0.1560000000000001941 ) ;
#3 = ORIENTED_EDGE ( 'NONE', *, *, #70, .F. ) ;
#4 = AXIS2_PLACEMENT_3D ( 'NONE', #182, #8, #252 ) ;
#5 = LINE ( 'NONE', #131, #198 ) ;
#6 = VERTEX_POINT ( 'NONE', #91 ) ;
#7 = AXIS2_PLACEMENT_3D ( 'NONE', #267, #21, #209 ) ;
#8 = DIRECTION ( 'NONE',  ( 0.0000000000000000000, 1.000000000000000000, 0.0000000000000000000 ) ) ;
#9 = DIRECTION ( 'NONE',  ( 0.0000000000000000000, 0.0000000000000000000, 1.000000000000000000 ) ) ;
#10 = EDGE_CURVE ( 'NONE', #103, #6, #192, .T. ) ;
#11 = VERTEX_POINT ( 'NONE', #298 ) ;
#12 = FACE_OUTER_BOUND ( 'NONE', #235, .T. ) ;
#13 = DIRECTION ( 'NONE',  ( 0.0000000000000000000, 1.000000000000000000, 0.0000000000000000000 ) ) ;
#14 = DIRECTION ( 'NONE',  ( 0.0000000000000000000, 1.000000000000000000, 0.0000000000000000000 ) ) ;
#15 = CARTESIAN_POINT ( 'NONE',  ( -9.625000000000000000, 0.0000000000000000000, -9.625000000000000000 ) ) ;
#16 = DIRECTION ( 'NONE',  ( 0.0000000000000000000, -1.000000000000000000, -0.0000000000000000000 ) ) ;
#17 = CARTESIAN_POINT ( 'NONE',  ( 9.625000000000000000, -0.07470000000000000251, -9.625000000000000000 ) ) ;
#18 = FACE_BOUND ( 'NONE', #90, .T. ) ;
#19 = PRODUCT_DEFINITION_FORMATION_WITH_SPECIFIED_SOURCE ( 'ANY', '', #151, .NOT_KNOWN. ) ;
#20 = CYLINDRICAL_SURFACE ( 'NONE', #168, 0.1560000000000001941 ) ;
#21 = DIRECTION ( 'NONE',  ( 0.0000000000000000000, 0.0000000000000000000, 1.000000000000000000 ) ) ;
#22 = ADVANCED_FACE ( 'NONE', ( #118, #115 ), #20, .F. ) ;
#23 = STYLED_ITEM ( 'NONE', ( #136 ), #141 ) ;
#24 = DIRECTION ( 'NONE',  ( 0.0000000000000000000, 0.0000000000000000000, 1.000000000000000000 ) ) ;
#25 = CARTESIAN_POINT ( 'NONE',  ( -9.625000000000000000, -0.07470000000000000251, 9.625000000000000000 ) ) ;
#26 = FACE_OUTER_BOUND ( 'NONE', #275, .T. ) ;
#27 = ORIENTED_EDGE ( 'NONE', *, *, #10, .F. ) ;
#28 = UNCERTAINTY_MEASURE_WITH_UNIT (LENGTH_MEASURE( 1.000000000000000082E-05 ), #242, 'distance_accuracy_value', 'NONE');
#29 = AXIS2_PLACEMENT_3D ( 'NONE', #191, #52, #234 ) ;
#30 = FILL_AREA_STYLE ('',( #324 ) ) ;
#31 = ORIENTED_EDGE ( 'NONE', *, *, #332, .T. ) ;
#32 = CARTESIAN_POINT ( 'NONE',  ( -9.625000000000000000, -0.07470000000000000251, -9.468999999999999417 ) ) ;
#33 = LINE ( 'NONE', #280, #239 ) ;
#34 = EDGE_CURVE ( 'NONE', #11, #11, #35, .T. ) ;
#35 = CIRCLE ( 'NONE', #301, 0.1560000000000001941 ) ;
#36 = CARTESIAN_POINT ( 'NONE',  ( -11.62500000000000000, -0.07470000000000000251, -11.62500000000000000 ) ) ;
#37 = SURFACE_STYLE_FILL_AREA ( #30 ) ;
#38 = DIRECTION ( 'NONE',  ( 0.0000000000000000000, 0.0000000000000000000, 1.000000000000000000 ) ) ;
#39 = DIRECTION ( 'NONE',  ( -0.0000000000000000000, -1.000000000000000000, -0.0000000000000000000 ) ) ;
#40 = AXIS2_PLACEMENT_3D ( 'NONE', #95, #160, #72 ) ;
#41 = CARTESIAN_POINT ( 'NONE',  ( 11.62500000000000000, 0.0000000000000000000, 0.0000000000000000000 ) ) ;
#42 = LINE ( 'NONE', #43, #295 ) ;
#43 = CARTESIAN_POINT ( 'NONE',  ( -11.62500000000000000, 0.0000000000000000000, -11.62500000000000000 ) ) ;
#44 = DIRECTION ( 'NONE',  ( 0.0000000000000000000, 1.000000000000000000, 0.0000000000000000000 ) ) ;
#45 = STYLED_ITEM ( 'NONE', ( #58 ), #216 ) ;
#46 = VERTEX_POINT ( 'NONE', #212 ) ;
#47 = EDGE_LOOP ( 'NONE', ( #167 ) ) ;
#48 = VECTOR ( 'NONE', #16, 39.37007874015748143 ) ;
#49 = EDGE_LOOP ( 'NONE', ( #251, #211, #185, #223 ) ) ;
#50 = PLANE ( 'NONE',  #29 ) ;
#51 = DIMENSIONAL_EXPONENTS ( 1.000000000000000000, 0.0000000000000000000, 0.0000000000000000000, 0.0000000000000000000, 0.0000000000000000000, 0.0000000000000000000, 0.0000000000000000000 ) ;
#52 = DIRECTION ( 'NONE',  ( 0.0000000000000000000, 0.0000000000000000000, -1.000000000000000000 ) ) ;
#53 = FACE_BOUND ( 'NONE', #47, .T. ) ;
#54 = ORIENTED_EDGE ( 'NONE', *, *, #70, .T. ) ;
#55 = ORIENTED_EDGE ( 'NONE', *, *, #179, .F. ) ;
#56 = DIMENSIONAL_EXPONENTS ( 1.000000000000000000, 0.0000000000000000000, 0.0000000000000000000, 0.0000000000000000000, 0.0000000000000000000, 0.0000000000000000000, 0.0000000000000000000 ) ;
#57 = CARTESIAN_POINT ( 'NONE',  ( 9.625000000000000000, -0.07470000000000000251, -9.468999999999999417 ) ) ;
#58 = PRESENTATION_STYLE_ASSIGNMENT (( #86 ) ) ;
#59 = CIRCLE ( 'NONE', #277, 0.1560000000000001941 ) ;
#60 = VERTEX_POINT ( 'NONE', #153 ) ;
#61 =( LENGTH_UNIT ( ) NAMED_UNIT ( * ) SI_UNIT ( $, .METRE. ) );
#62 = UNCERTAINTY_MEASURE_WITH_UNIT (LENGTH_MEASURE( 1.000000000000000082E-05 ), #143, 'distance_accuracy_value', 'NONE');
#63 = LINE ( 'NONE', #287, #218 ) ;
#64 =( NAMED_UNIT ( * ) SI_UNIT ( $, .STERADIAN. ) SOLID_ANGLE_UNIT ( ) );
#65 = EDGE_CURVE ( 'NONE', #80, #103, #42, .T. ) ;
#66 = ORIENTED_EDGE ( 'NONE', *, *, #158, .T. ) ;
#67 = FACE_OUTER_BOUND ( 'NONE', #97, .T. ) ;
#68 = PRESENTATION_LAYER_ASSIGNMENT (  '', '', ( #45 ) ) ;
#69 = CARTESIAN_POINT ( 'NONE',  ( -11.62500000000000000, 0.0000000000000000000, -11.62500000000000000 ) ) ;
#70 = EDGE_CURVE ( 'NONE', #329, #106, #33, .T. ) ;
#71 = ORIENTED_EDGE ( 'NONE', *, *, #281, .T. ) ;
#72 = DIRECTION ( 'NONE',  ( 0.0000000000000000000, -0.0000000000000000000, 1.000000000000000000 ) ) ;
#73 = CARTESIAN_POINT ( 'NONE',  ( 11.62500000000000000, -0.07470000000000000251, 11.62500000000000000 ) ) ;
#74 = LINE ( 'NONE', #41, #205 ) ;
#75 = EDGE_LOOP ( 'NONE', ( #270 ) ) ;
#76 = ORIENTED_EDGE ( 'NONE', *, *, #281, .F. ) ;
#77 = ADVANCED_FACE ( 'NONE', ( #273, #26 ), #2, .F. ) ;
#78 = ADVANCED_FACE ( 'NONE', ( #215 ), #305, .T. ) ;
#79 = VERTEX_POINT ( 'NONE', #178 ) ;
#80 = VERTEX_POINT ( 'NONE', #69 ) ;
#81 = EDGE_LOOP ( 'NONE', ( #195 ) ) ;
#82 = DIRECTION ( 'NONE',  ( -0.0000000000000000000, -1.000000000000000000, -0.0000000000000000000 ) ) ;
#83 = CARTESIAN_POINT ( 'NONE',  ( 11.62500000000000000, 0.0000000000000000000, -11.62500000000000000 ) ) ;
#84 = VECTOR ( 'NONE', #114, 39.37007874015748143 ) ;
#85 = CIRCLE ( 'NONE', #4, 0.1560000000000001941 ) ;
#86 = SURFACE_STYLE_USAGE ( .BOTH. , #175 ) ;
#87 = LENGTH_MEASURE_WITH_UNIT ( LENGTH_MEASURE( 0.02539999999999999897 ), #202 );
#88 = PLANE ( 'NONE',  #40 ) ;
#89 = LINE ( 'NONE', #230, #120 ) ;
#90 = EDGE_LOOP ( 'NONE', ( #334 ) ) ;
#91 = CARTESIAN_POINT ( 'NONE',  ( -11.62500000000000000, -0.07470000000000000251, 11.62500000000000000 ) ) ;
#92 = ORIENTED_EDGE ( 'NONE', *, *, #34, .T. ) ;
#93 = CARTESIAN_POINT ( 'NONE',  ( -9.625000000000000000, 0.0000000000000000000, -9.625000000000000000 ) ) ;
#94 = DIRECTION ( 'NONE',  ( -0.0000000000000000000, 0.0000000000000000000, -1.000000000000000000 ) ) ;
#95 = CARTESIAN_POINT ( 'NONE',  ( 0.0000000000000000000, 0.0000000000000000000, 0.0000000000000000000 ) ) ;
#96 = ORIENTED_EDGE ( 'NONE', *, *, #233, .F. ) ;
#97 = EDGE_LOOP ( 'NONE', ( #258 ) ) ;
#98 = PRESENTATION_LAYER_ASSIGNMENT (  '', '', ( #23 ) ) ;
#99 =( CONVERSION_BASED_UNIT ( 'INCH', #87 ) LENGTH_UNIT ( ) NAMED_UNIT ( #138 ) );
#100 = DIRECTION ( 'NONE',  ( 0.0000000000000000000, 0.0000000000000000000, 1.000000000000000000 ) ) ;
#101 = AXIS2_PLACEMENT_3D ( 'NONE', #135, #311, #170 ) ;
#102 = VERTEX_POINT ( 'NONE', #326 ) ;
#103 = VERTEX_POINT ( 'NONE', #330 ) ;
#104 = ORIENTED_EDGE ( 'NONE', *, *, #225, .T. ) ;
#105 = EDGE_CURVE ( 'NONE', #309, #309, #85, .T. ) ;
#106 = VERTEX_POINT ( 'NONE', #227 ) ;
#107 = APPLICATION_PROTOCOL_DEFINITION ( 'draft international standard', 'automotive_design', 1998, #343 ) ;
#108 = CARTESIAN_POINT ( 'NONE',  ( 9.625000000000000000, 0.0000000000000000000, -9.625000000000000000 ) ) ;
#109 =( GEOMETRIC_REPRESENTATION_CONTEXT ( 3 ) GLOBAL_UNCERTAINTY_ASSIGNED_CONTEXT ( ( #28 ) ) GLOBAL_UNIT_ASSIGNED_CONTEXT ( ( #242, #152, #64 ) ) REPRESENTATION_CONTEXT ( 'NONE', 'WORKASPACE' ) );
#110 = DIRECTION ( 'NONE',  ( 0.0000000000000000000, 0.0000000000000000000, 1.000000000000000000 ) ) ;
#111 = ADVANCED_FACE ( 'NONE', ( #248, #224, #147, #304, #12 ), #88, .T. ) ;
#112 = DIRECTION ( 'NONE',  ( -1.000000000000000000, 0.0000000000000000000, 0.0000000000000000000 ) ) ;
#113 = CIRCLE ( 'NONE', #297, 0.1560000000000001941 ) ;
#114 = DIRECTION ( 'NONE',  ( 0.0000000000000000000, -0.0000000000000000000, 1.000000000000000000 ) ) ;
#115 = FACE_OUTER_BOUND ( 'NONE', #323, .T. ) ;
#116 = ORIENTED_EDGE ( 'NONE', *, *, #302, .T. ) ;
#117 = DIRECTION ( 'NONE',  ( 0.0000000000000000000, 0.0000000000000000000, 1.000000000000000000 ) ) ;
#118 = FACE_OUTER_BOUND ( 'NONE', #249, .T. ) ;
#119 =( GEOMETRIC_REPRESENTATION_CONTEXT ( 3 ) GLOBAL_UNCERTAINTY_ASSIGNED_CONTEXT ( ( #206 ) ) GLOBAL_UNIT_ASSIGNED_CONTEXT ( ( #99, #285, #336 ) ) REPRESENTATION_CONTEXT ( 'NONE', 'WORKASPACE' ) );
#120 = VECTOR ( 'NONE', #303, 39.37007874015748143 ) ;
#121 = AXIS2_PLACEMENT_3D ( 'NONE', #139, #112, #325 ) ;
#122 = ORIENTED_EDGE ( 'NONE', *, *, #199, .F. ) ;
#123 = EDGE_CURVE ( 'NONE', #186, #6, #156, .T. ) ;
#124 = DIRECTION ( 'NONE',  ( 0.0000000000000000000, 1.000000000000000000, 0.0000000000000000000 ) ) ;
#125 = VERTEX_POINT ( 'NONE', #345 ) ;
#126 = ORIENTED_EDGE ( 'NONE', *, *, #225, .F. ) ;
#127 = DIRECTION ( 'NONE',  ( 0.0000000000000000000, 0.0000000000000000000, -1.000000000000000000 ) ) ;
#128 = ORIENTED_EDGE ( 'NONE', *, *, #203, .F. ) ;
#129 = DIRECTION ( 'NONE',  ( 0.0000000000000000000, -0.0000000000000000000, 1.000000000000000000 ) ) ;
#130 = PRODUCT_RELATED_PRODUCT_CATEGORY ( 'part', '', ( #151 ) ) ;
#131 = CARTESIAN_POINT ( 'NONE',  ( 11.62500000000000000, -0.07470000000000000251, -11.62500000000000000 ) ) ;
#132 = CIRCLE ( 'NONE', #219, 0.1560000000000001941 ) ;
#133 = CLOSED_SHELL ( 'NONE', ( #111, #77, #22, #327, #294, #268, #315, #291, #78, #165 ) ) ;
#134 = PLANE ( 'NONE',  #7 ) ;
#135 = CARTESIAN_POINT ( 'NONE',  ( -9.625000000000000000, 0.0000000000000000000, 9.625000000000000000 ) ) ;
#136 = PRESENTATION_STYLE_ASSIGNMENT (( #306 ) ) ;
#137 = DIRECTION ( 'NONE',  ( 1.000000000000000000, 0.0000000000000000000, 0.0000000000000000000 ) ) ;
#138 = DIMENSIONAL_EXPONENTS ( 1.000000000000000000, 0.0000000000000000000, 0.0000000000000000000, 0.0000000000000000000, 0.0000000000000000000, 0.0000000000000000000, 0.0000000000000000000 ) ;
#139 = CARTESIAN_POINT ( 'NONE',  ( -11.62500000000000000, 0.0000000000000000000, -11.62500000000000000 ) ) ;
#140 = ORIENTED_EDGE ( 'NONE', *, *, #158, .F. ) ;
#141 = MANIFOLD_SOLID_BREP ( 'Imported1', #133 ) ;
#142 = CARTESIAN_POINT ( 'NONE',  ( 9.625000000000000000, 0.0000000000000000000, -9.468999999999999417 ) ) ;
#143 =( CONVERSION_BASED_UNIT ( 'INCH', #210 ) LENGTH_UNIT ( ) NAMED_UNIT ( #56 ) );
#144 = CARTESIAN_POINT ( 'NONE',  ( 0.0000000000000000000, 0.0000000000000000000, 11.62500000000000000 ) ) ;
#145 = EDGE_CURVE ( 'NONE', #6, #260, #257, .T. ) ;
#146 = FACE_OUTER_BOUND ( 'NONE', #310, .T. ) ;
#147 = FACE_BOUND ( 'NONE', #81, .T. ) ;
#148 = ORIENTED_EDGE ( 'NONE', *, *, #253, .F. ) ;
#149 = SHAPE_DEFINITION_REPRESENTATION ( #245, #216 ) ;
#150 = EDGE_LOOP ( 'NONE', ( #92 ) ) ;
#151 = PRODUCT ( 'SBP-2424-XXL-P10', 'SBP-2424-XXL-P10', '', ( #319 ) ) ;
#152 =( NAMED_UNIT ( * ) PLANE_ANGLE_UNIT ( ) SI_UNIT ( $, .RADIAN. ) );
#153 = CARTESIAN_POINT ( 'NONE',  ( 11.62500000000000000, 0.0000000000000000000, 11.62500000000000000 ) ) ;
#154 = DIRECTION ( 'NONE',  ( 0.0000000000000000000, 0.0000000000000000000, 1.000000000000000000 ) ) ;
#155 = LINE ( 'NONE', #259, #328 ) ;
#156 = LINE ( 'NONE', #204, #48 ) ;
#157 = DIRECTION ( 'NONE',  ( 0.0000000000000000000, 0.0000000000000000000, 1.000000000000000000 ) ) ;
#158 = EDGE_CURVE ( 'NONE', #106, #103, #5, .T. ) ;
#159 = DIRECTION ( 'NONE',  ( 0.0000000000000000000, 0.0000000000000000000, 1.000000000000000000 ) ) ;
#160 = DIRECTION ( 'NONE',  ( -0.0000000000000000000, 1.000000000000000000, 0.0000000000000000000 ) ) ;
#161 = AXIS2_PLACEMENT_3D ( 'NONE', #232, #164, #129 ) ;
#162 = VECTOR ( 'NONE', #261, 39.37007874015748143 ) ;
#163 = SURFACE_SIDE_STYLE ('',( #200 ) ) ;
#164 = DIRECTION ( 'NONE',  ( -0.0000000000000000000, 1.000000000000000000, 0.0000000000000000000 ) ) ;
#165 = ADVANCED_FACE ( 'NONE', ( #53, #18, #299, #214, #278 ), #283, .F. ) ;
#166 = CIRCLE ( 'NONE', #101, 0.1560000000000001941 ) ;
#167 = ORIENTED_EDGE ( 'NONE', *, *, #105, .T. ) ;
#168 = AXIS2_PLACEMENT_3D ( 'NONE', #256, #14, #157 ) ;
#169 = CARTESIAN_POINT ( 'NONE',  ( 9.625000000000000000, 0.0000000000000000000, -9.625000000000000000 ) ) ;
#170 = DIRECTION ( 'NONE',  ( 0.0000000000000000000, 0.0000000000000000000, 1.000000000000000000 ) ) ;
#171 = ORIENTED_EDGE ( 'NONE', *, *, #274, .T. ) ;
#172 = EDGE_LOOP ( 'NONE', ( #250, #55, #54, #66 ) ) ;
#173 =( LENGTH_UNIT ( ) NAMED_UNIT ( * ) SI_UNIT ( $, .METRE. ) );
#174 = EDGE_CURVE ( 'NONE', #260, #60, #155, .T. ) ;
#175 = SURFACE_SIDE_STYLE ('',( #37 ) ) ;
#176 = VERTEX_POINT ( 'NONE', #57 ) ;
#177 = ORIENTED_EDGE ( 'NONE', *, *, #179, .T. ) ;
#178 = CARTESIAN_POINT ( 'NONE',  ( -9.625000000000000000, 0.0000000000000000000, 9.781000000000000583 ) ) ;
#179 = EDGE_CURVE ( 'NONE', #329, #80, #89, .T. ) ;
#180 = ORIENTED_EDGE ( 'NONE', *, *, #274, .F. ) ;
#181 = MECHANICAL_DESIGN_GEOMETRIC_PRESENTATION_REPRESENTATION (  '', ( #23 ), #119 ) ;
#182 = CARTESIAN_POINT ( 'NONE',  ( -9.625000000000000000, -0.07470000000000000251, -9.625000000000000000 ) ) ;
#183 = CYLINDRICAL_SURFACE ( 'NONE', #231, 0.1560000000000001941 ) ;
#184 = DIRECTION ( 'NONE',  ( -0.0000000000000000000, -1.000000000000000000, 0.0000000000000000000 ) ) ;
#185 = ORIENTED_EDGE ( 'NONE', *, *, #65, .T. ) ;
#186 = VERTEX_POINT ( 'NONE', #339 ) ;
#187 = DIRECTION ( 'NONE',  ( 0.0000000000000000000, 0.0000000000000000000, 1.000000000000000000 ) ) ;
#188 = DIRECTION ( 'NONE',  ( -0.0000000000000000000, 1.000000000000000000, 0.0000000000000000000 ) ) ;
#189 = ORIENTED_EDGE ( 'NONE', *, *, #174, .F. ) ;
#190 = EDGE_LOOP ( 'NONE', ( #341 ) ) ;
#191 = CARTESIAN_POINT ( 'NONE',  ( 11.62500000000000000, 0.0000000000000000000, -11.62500000000000000 ) ) ;
#192 = LINE ( 'NONE', #36, #313 ) ;
#193 = CARTESIAN_POINT ( 'NONE',  ( 0.0000000000000000000, 0.0000000000000000000, 0.0000000000000000000 ) ) ;
#194 = VECTOR ( 'NONE', #196, 39.37007874015748143 ) ;
#195 = ORIENTED_EDGE ( 'NONE', *, *, #307, .T. ) ;
#196 = DIRECTION ( 'NONE',  ( 1.000000000000000000, 0.0000000000000000000, 0.0000000000000000000 ) ) ;
#197 = ORIENTED_EDGE ( 'NONE', *, *, #123, .T. ) ;
#198 = VECTOR ( 'NONE', #266, 39.37007874015748143 ) ;
#199 = EDGE_CURVE ( 'NONE', #60, #329, #74, .T. ) ;
#200 = SURFACE_STYLE_FILL_AREA ( #228 ) ;
#201 = MECHANICAL_DESIGN_GEOMETRIC_PRESENTATION_REPRESENTATION (  '', ( #45 ), #109 ) ;
#202 =( LENGTH_UNIT ( ) NAMED_UNIT ( * ) SI_UNIT ( $, .METRE. ) );
#203 = EDGE_CURVE ( 'NONE', #176, #176, #132, .T. ) ;
#204 = CARTESIAN_POINT ( 'NONE',  ( -11.62500000000000000, 0.0000000000000000000, 11.62500000000000000 ) ) ;
#205 = VECTOR ( 'NONE', #94, 39.37007874015748143 ) ;
#206 = UNCERTAINTY_MEASURE_WITH_UNIT (LENGTH_MEASURE( 1.000000000000000082E-05 ), #99, 'distance_accuracy_value', 'NONE');
#207 = FACE_OUTER_BOUND ( 'NONE', #220, .T. ) ;
#208 = EDGE_LOOP ( 'NONE', ( #140, #126, #338, #27 ) ) ;
#209 = DIRECTION ( 'NONE',  ( 1.000000000000000000, 0.0000000000000000000, -0.0000000000000000000 ) ) ;
#210 = LENGTH_MEASURE_WITH_UNIT ( LENGTH_MEASURE( 0.02539999999999999897 ), #173 );
#211 = ORIENTED_EDGE ( 'NONE', *, *, #302, .F. ) ;
#212 = CARTESIAN_POINT ( 'NONE',  ( -9.625000000000000000, -0.07470000000000000251, 9.781000000000000583 ) ) ;
#213 = APPLICATION_PROTOCOL_DEFINITION ( 'draft international standard', 'automotive_design', 1998, #347 ) ;
#214 = FACE_BOUND ( 'NONE', #190, .T. ) ;
#215 = FACE_OUTER_BOUND ( 'NONE', #276, .T. ) ;
#216 = ADVANCED_BREP_SHAPE_REPRESENTATION ( 'SBP-2424-XXL-P10', ( #141, #337 ), #318 ) ;
#217 = COLOUR_RGB ( '',0.7921568627450980005, 0.8196078431372548767, 0.9333333333333333481 ) ;
#218 = VECTOR ( 'NONE', #308, 39.37007874015748143 ) ;
#219 = AXIS2_PLACEMENT_3D ( 'NONE', #17, #44, #100 ) ;
#220 = EDGE_LOOP ( 'NONE', ( #128 ) ) ;
#221 = AXIS2_PLACEMENT_3D ( 'NONE', #108, #342, #238 ) ;
#222 = FACE_OUTER_BOUND ( 'NONE', #300, .T. ) ;
#223 = ORIENTED_EDGE ( 'NONE', *, *, #10, .T. ) ;
#224 = FACE_BOUND ( 'NONE', #229, .T. ) ;
#225 = EDGE_CURVE ( 'NONE', #260, #106, #63, .T. ) ;
#226 = DIRECTION ( 'NONE',  ( -0.0000000000000000000, -1.000000000000000000, -0.0000000000000000000 ) ) ;
#227 = CARTESIAN_POINT ( 'NONE',  ( 11.62500000000000000, -0.07470000000000000251, -11.62500000000000000 ) ) ;
#228 = FILL_AREA_STYLE ('',( #284 ) ) ;
#229 = EDGE_LOOP ( 'NONE', ( #171 ) ) ;
#230 = CARTESIAN_POINT ( 'NONE',  ( 0.0000000000000000000, 0.0000000000000000000, -11.62500000000000000 ) ) ;
#231 = AXIS2_PLACEMENT_3D ( 'NONE', #317, #344, #117 ) ;
#232 = CARTESIAN_POINT ( 'NONE',  ( 0.0000000000000000000, -0.07470000000000000251, 0.0000000000000000000 ) ) ;
#233 = EDGE_CURVE ( 'NONE', #125, #125, #333, .T. ) ;
#234 = DIRECTION ( 'NONE',  ( -1.000000000000000000, 0.0000000000000000000, -0.0000000000000000000 ) ) ;
#235 = EDGE_LOOP ( 'NONE', ( #116, #31, #314, #177 ) ) ;
#236 = ORIENTED_EDGE ( 'NONE', *, *, #233, .T. ) ;
#237 = ORIENTED_EDGE ( 'NONE', *, *, #105, .F. ) ;
#238 = DIRECTION ( 'NONE',  ( 0.0000000000000000000, 0.0000000000000000000, 1.000000000000000000 ) ) ;
#239 = VECTOR ( 'NONE', #39, 39.37007874015748143 ) ;
#240 = AXIS2_PLACEMENT_3D ( 'NONE', #15, #226, #159 ) ;
#241 = CARTESIAN_POINT ( 'NONE',  ( 9.625000000000000000, 0.0000000000000000000, 9.625000000000000000 ) ) ;
#242 =( CONVERSION_BASED_UNIT ( 'INCH', #263 ) LENGTH_UNIT ( ) NAMED_UNIT ( #51 ) );
#243 = VERTEX_POINT ( 'NONE', #142 ) ;
#244 = EDGE_LOOP ( 'NONE', ( #71 ) ) ;
#245 = PRODUCT_DEFINITION_SHAPE ( 'NONE', 'NONE',  #255 ) ;
#246 =( NAMED_UNIT ( * ) SI_UNIT ( $, .STERADIAN. ) SOLID_ANGLE_UNIT ( ) );
#247 = AXIS2_PLACEMENT_3D ( 'NONE', #93, #13, #154 ) ;
#248 = FACE_BOUND ( 'NONE', #290, .T. ) ;
#249 = EDGE_LOOP ( 'NONE', ( #148 ) ) ;
#250 = ORIENTED_EDGE ( 'NONE', *, *, #65, .F. ) ;
#251 = ORIENTED_EDGE ( 'NONE', *, *, #123, .F. ) ;
#252 = DIRECTION ( 'NONE',  ( 0.0000000000000000000, 0.0000000000000000000, 1.000000000000000000 ) ) ;
#253 = EDGE_CURVE ( 'NONE', #46, #46, #113, .T. ) ;
#254 = CARTESIAN_POINT ( 'NONE',  ( 9.625000000000000000, -0.07470000000000000251, 9.625000000000000000 ) ) ;
#255 = PRODUCT_DEFINITION ( 'UNKNOWN', '', #19, #1 ) ;
#256 = CARTESIAN_POINT ( 'NONE',  ( -9.625000000000000000, 0.0000000000000000000, 9.625000000000000000 ) ) ;
#257 = LINE ( 'NONE', #262, #162 ) ;
#258 = ORIENTED_EDGE ( 'NONE', *, *, #307, .F. ) ;
#259 = CARTESIAN_POINT ( 'NONE',  ( 11.62500000000000000, 0.0000000000000000000, 11.62500000000000000 ) ) ;
#260 = VERTEX_POINT ( 'NONE', #73 ) ;
#261 = DIRECTION ( 'NONE',  ( 1.000000000000000000, 0.0000000000000000000, -0.0000000000000000000 ) ) ;
#262 = CARTESIAN_POINT ( 'NONE',  ( -11.62500000000000000, -0.07470000000000000251, 11.62500000000000000 ) ) ;
#263 = LENGTH_MEASURE_WITH_UNIT ( LENGTH_MEASURE( 0.02539999999999999897 ), #61 );
#264 = LINE ( 'NONE', #144, #194 ) ;
#265 = EDGE_LOOP ( 'NONE', ( #237 ) ) ;
#266 = DIRECTION ( 'NONE',  ( -1.000000000000000000, 0.0000000000000000000, -0.0000000000000000000 ) ) ;
#267 = CARTESIAN_POINT ( 'NONE',  ( -11.62500000000000000, 0.0000000000000000000, 11.62500000000000000 ) ) ;
#268 = ADVANCED_FACE ( 'NONE', ( #222 ), #134, .T. ) ;
#269 = CIRCLE ( 'NONE', #221, 0.1560000000000001941 ) ;
#270 = ORIENTED_EDGE ( 'NONE', *, *, #34, .F. ) ;
#271 = FACE_OUTER_BOUND ( 'NONE', #172, .T. ) ;
#272 = LINE ( 'NONE', #296, #84 ) ;
#273 = FACE_OUTER_BOUND ( 'NONE', #265, .T. ) ;
#274 = EDGE_CURVE ( 'NONE', #79, #79, #166, .T. ) ;
#275 = EDGE_LOOP ( 'NONE', ( #96 ) ) ;
#276 = EDGE_LOOP ( 'NONE', ( #3, #122, #189, #104 ) ) ;
#277 = AXIS2_PLACEMENT_3D ( 'NONE', #241, #82, #110 ) ;
#278 = FACE_OUTER_BOUND ( 'NONE', #208, .T. ) ;
#279 = ORIENTED_EDGE ( 'NONE', *, *, #145, .T. ) ;
#280 = CARTESIAN_POINT ( 'NONE',  ( 11.62500000000000000, 0.0000000000000000000, -11.62500000000000000 ) ) ;
#281 = EDGE_CURVE ( 'NONE', #243, #243, #269, .T. ) ;
#282 = CARTESIAN_POINT ( 'NONE',  ( 11.62500000000000000, 0.0000000000000000000, 11.62500000000000000 ) ) ;
#283 = PLANE ( 'NONE',  #161 ) ;
#284 = FILL_AREA_STYLE_COLOUR ( '', #288 ) ;
#285 =( NAMED_UNIT ( * ) PLANE_ANGLE_UNIT ( ) SI_UNIT ( $, .RADIAN. ) );
#286 = FACE_OUTER_BOUND ( 'NONE', #49, .T. ) ;
#287 = CARTESIAN_POINT ( 'NONE',  ( 11.62500000000000000, -0.07470000000000000251, 11.62500000000000000 ) ) ;
#288 = COLOUR_RGB ( '',0.7921568627450980005, 0.8196078431372548767, 0.9333333333333333481 ) ;
#289 = DIRECTION ( 'NONE',  ( 0.0000000000000000000, 1.000000000000000000, 0.0000000000000000000 ) ) ;
#290 = EDGE_LOOP ( 'NONE', ( #236 ) ) ;
#291 = ADVANCED_FACE ( 'NONE', ( #271 ), #50, .T. ) ;
#292 = AXIS2_PLACEMENT_3D ( 'NONE', #169, #289, #24 ) ;
#293 = PLANE ( 'NONE',  #121 ) ;
#294 = ADVANCED_FACE ( 'NONE', ( #207, #146 ), #321, .F. ) ;
#295 = VECTOR ( 'NONE', #184, 39.37007874015748143 ) ;
#296 = CARTESIAN_POINT ( 'NONE',  ( -11.62500000000000000, 0.0000000000000000000, 0.0000000000000000000 ) ) ;
#297 = AXIS2_PLACEMENT_3D ( 'NONE', #25, #316, #312 ) ;
#298 = CARTESIAN_POINT ( 'NONE',  ( 9.625000000000000000, -0.07470000000000000251, 9.781000000000000583 ) ) ;
#299 = FACE_BOUND ( 'NONE', #150, .T. ) ;
#300 = EDGE_LOOP ( 'NONE', ( #322, #335, #197, #279 ) ) ;
#301 = AXIS2_PLACEMENT_3D ( 'NONE', #254, #124, #38 ) ;
#302 = EDGE_CURVE ( 'NONE', #80, #186, #272, .T. ) ;
#303 = DIRECTION ( 'NONE',  ( -1.000000000000000000, -0.0000000000000000000, -0.0000000000000000000 ) ) ;
#304 = FACE_BOUND ( 'NONE', #244, .T. ) ;
#305 = PLANE ( 'NONE',  #346 ) ;
#306 = SURFACE_STYLE_USAGE ( .BOTH. , #163 ) ;
#307 = EDGE_CURVE ( 'NONE', #102, #102, #59, .T. ) ;
#308 = DIRECTION ( 'NONE',  ( 0.0000000000000000000, 0.0000000000000000000, -1.000000000000000000 ) ) ;
#309 = VERTEX_POINT ( 'NONE', #32 ) ;
#310 = EDGE_LOOP ( 'NONE', ( #76 ) ) ;
#311 = DIRECTION ( 'NONE',  ( -0.0000000000000000000, -1.000000000000000000, -0.0000000000000000000 ) ) ;
#312 = DIRECTION ( 'NONE',  ( 0.0000000000000000000, 0.0000000000000000000, 1.000000000000000000 ) ) ;
#313 = VECTOR ( 'NONE', #9, 39.37007874015748143 ) ;
#314 = ORIENTED_EDGE ( 'NONE', *, *, #199, .T. ) ;
#315 = ADVANCED_FACE ( 'NONE', ( #286 ), #293, .T. ) ;
#316 = DIRECTION ( 'NONE',  ( 0.0000000000000000000, 1.000000000000000000, 0.0000000000000000000 ) ) ;
#317 = CARTESIAN_POINT ( 'NONE',  ( 9.625000000000000000, 0.0000000000000000000, 9.625000000000000000 ) ) ;
#318 =( GEOMETRIC_REPRESENTATION_CONTEXT ( 3 ) GLOBAL_UNCERTAINTY_ASSIGNED_CONTEXT ( ( #62 ) ) GLOBAL_UNIT_ASSIGNED_CONTEXT ( ( #143, #320, #246 ) ) REPRESENTATION_CONTEXT ( 'NONE', 'WORKASPACE' ) );
#319 = PRODUCT_CONTEXT ( 'NONE', #347, 'mechanical' ) ;
#320 =( NAMED_UNIT ( * ) PLANE_ANGLE_UNIT ( ) SI_UNIT ( $, .RADIAN. ) );
#321 = CYLINDRICAL_SURFACE ( 'NONE', #292, 0.1560000000000001941 ) ;
#322 = ORIENTED_EDGE ( 'NONE', *, *, #174, .T. ) ;
#323 = EDGE_LOOP ( 'NONE', ( #180 ) ) ;
#324 = FILL_AREA_STYLE_COLOUR ( '', #217 ) ;
#325 = DIRECTION ( 'NONE',  ( 0.0000000000000000000, 0.0000000000000000000, 1.000000000000000000 ) ) ;
#326 = CARTESIAN_POINT ( 'NONE',  ( 9.625000000000000000, 0.0000000000000000000, 9.781000000000000583 ) ) ;
#327 = ADVANCED_FACE ( 'NONE', ( #340, #67 ), #183, .F. ) ;
#328 = VECTOR ( 'NONE', #188, 39.37007874015748143 ) ;
#329 = VERTEX_POINT ( 'NONE', #83 ) ;
#330 = CARTESIAN_POINT ( 'NONE',  ( -11.62500000000000000, -0.07470000000000000251, -11.62500000000000000 ) ) ;
#331 = DIRECTION ( 'NONE',  ( 1.000000000000000000, -0.0000000000000000000, 0.0000000000000000000 ) ) ;
#332 = EDGE_CURVE ( 'NONE', #186, #60, #264, .T. ) ;
#333 = CIRCLE ( 'NONE', #240, 0.1560000000000001941 ) ;
#334 = ORIENTED_EDGE ( 'NONE', *, *, #253, .T. ) ;
#335 = ORIENTED_EDGE ( 'NONE', *, *, #332, .F. ) ;
#336 =( NAMED_UNIT ( * ) SI_UNIT ( $, .STERADIAN. ) SOLID_ANGLE_UNIT ( ) );
#337 = AXIS2_PLACEMENT_3D ( 'NONE', #193, #187, #137 ) ;
#338 = ORIENTED_EDGE ( 'NONE', *, *, #145, .F. ) ;
#339 = CARTESIAN_POINT ( 'NONE',  ( -11.62500000000000000, 0.0000000000000000000, 11.62500000000000000 ) ) ;
#340 = FACE_OUTER_BOUND ( 'NONE', #75, .T. ) ;
#341 = ORIENTED_EDGE ( 'NONE', *, *, #203, .T. ) ;
#342 = DIRECTION ( 'NONE',  ( -0.0000000000000000000, -1.000000000000000000, -0.0000000000000000000 ) ) ;
#343 = APPLICATION_CONTEXT ( 'automotive_design' ) ;
#344 = DIRECTION ( 'NONE',  ( 0.0000000000000000000, 1.000000000000000000, 0.0000000000000000000 ) ) ;
#345 = CARTESIAN_POINT ( 'NONE',  ( -9.625000000000000000, 0.0000000000000000000, -9.468999999999999417 ) ) ;
#346 = AXIS2_PLACEMENT_3D ( 'NONE', #282, #331, #127 ) ;
#347 = APPLICATION_CONTEXT ( 'automotive_design' ) ;
ENDSEC;
END-ISO-10303-21;
