ISO-10303-21;
HEADER;
FILE_DESCRIPTION (( 'STEP AP203' ),
    '1' );
FILE_NAME ('SCE-WMS1SS.step',
    '2021-02-09T22:34:00',
    ( 'ADC123' ),
    ( 'Microsoft' ),
    'SwSTEP 2.0',
    'SolidWorks 2019',
    '' );
FILE_SCHEMA (( 'CONFIG_CONTROL_DESIGN' ));
ENDSEC;

DATA;
#1 = CARTESIAN_POINT ( 'NONE',  ( 0.0000000000000000000, 0.0000000000000000000, -0.06199999999999999956 ) ) ;
#2 = AXIS2_PLACEMENT_3D ( 'NONE', #11, #143, #300 ) ;
#3 = AXIS2_PLACEMENT_3D ( 'NONE', #112, #236, #86 ) ;
#4 = FACE_OUTER_BOUND ( 'NONE', #341, .T. ) ;
#5 = CC_DESIGN_DATE_AND_TIME_ASSIGNMENT ( #309, #76, ( #137 ) ) ;
#6 = CARTESIAN_POINT ( 'NONE',  ( 0.4060000000000000275, 0.0000000000000000000, -0.06199999999999999956 ) ) ;
#7 = CARTESIAN_POINT ( 'NONE',  ( 0.0000000000000000000, 0.0000000000000000000, 1.000000000000000000 ) ) ;
#8 = FACE_OUTER_BOUND ( 'NONE', #140, .T. ) ;
#9 = DIRECTION ( 'NONE',  ( 1.000000000000000000, 0.0000000000000000000, 0.0000000000000000000 ) ) ;
#10 = FACE_OUTER_BOUND ( 'NONE', #110, .T. ) ;
#11 = CARTESIAN_POINT ( 'NONE',  ( 0.0000000000000000000, 0.0000000000000000000, 1.000000000000000000 ) ) ;
#12 = VERTEX_POINT ( 'NONE', #57 ) ;
#13 = EDGE_CURVE ( 'NONE', #119, #119, #353, .T. ) ;
#14 =( NAMED_UNIT ( * ) SI_UNIT ( $, .STERADIAN. ) SOLID_ANGLE_UNIT ( ) );
#15 = CARTESIAN_POINT ( 'NONE',  ( 0.4800000000000135270, 0.0000000000000000000, -1.345435136879649601E-14 ) ) ;
#16 = CLOSED_SHELL ( 'NONE', ( #66, #152, #374, #254 ) ) ;
#17 = COORDINATED_UNIVERSAL_TIME_OFFSET ( 5, 0, .BEHIND. ) ;
#18 = CIRCLE ( 'NONE', #218, 0.5000000000000000000 ) ;
#19 = APPROVAL_ROLE ( '' ) ;
#20 = PERSON_AND_ORGANIZATION_ROLE ( 'creator' ) ;
#21 = DIRECTION ( 'NONE',  ( 0.0000000000000000000, 0.0000000000000000000, 1.000000000000000000 ) ) ;
#22 = DIRECTION ( 'NONE',  ( 0.0000000000000000000, 0.0000000000000000000, 1.000000000000000000 ) ) ;
#23 = CLOSED_SHELL ( 'NONE', ( #72, #59, #114, #340 ) ) ;
#24 = FACE_BOUND ( 'NONE', #136, .T. ) ;
#25 = APPROVAL ( #192, 'UNSPECIFIED' ) ;
#26 = CARTESIAN_POINT ( 'NONE',  ( 0.0000000000000000000, 0.0000000000000000000, 1.062000000000000055 ) ) ;
#27 = APPLICATION_PROTOCOL_DEFINITION ( 'international standard', 'config_control_design', 1994, #204 ) ;
#28 = ORIENTED_EDGE ( 'NONE', *, *, #299, .T. ) ;
#29 = ORIENTED_EDGE ( 'NONE', *, *, #183, .F. ) ;
#30 = AXIS2_PLACEMENT_3D ( 'NONE', #1, #56, #235 ) ;
#31 = CARTESIAN_POINT ( 'NONE',  ( 0.0000000000000000000, 0.0000000000000000000, -0.06199999999999999956 ) ) ;
#32 = ORIENTED_EDGE ( 'NONE', *, *, #147, .F. ) ;
#33 = AXIS2_PLACEMENT_3D ( 'NONE', #241, #350, #89 ) ;
#34 = PLANE ( 'NONE',  #330 ) ;
#35 = CYLINDRICAL_SURFACE ( 'NONE', #39, 0.4060000000000000275 ) ;
#36 = DIRECTION ( 'NONE',  ( 1.000000000000000000, 0.0000000000000000000, 0.0000000000000000000 ) ) ;
#37 = DIRECTION ( 'NONE',  ( 1.000000000000000000, 0.0000000000000000000, 0.0000000000000000000 ) ) ;
#38 = DIRECTION ( 'NONE',  ( -0.0000000000000000000, -0.0000000000000000000, -1.000000000000000000 ) ) ;
#39 = AXIS2_PLACEMENT_3D ( 'NONE', #122, #88, #318 ) ;
#40 = VERTEX_POINT ( 'NONE', #118 ) ;
#41 = LENGTH_MEASURE_WITH_UNIT ( LENGTH_MEASURE( 0.02539999999999999897 ), #179 );
#42 = CARTESIAN_POINT ( 'NONE',  ( 0.0000000000000000000, 0.0000000000000000000, 1.000000000000000000 ) ) ;
#43 = DIRECTION ( 'NONE',  ( 1.000000000000000000, 0.0000000000000000000, 0.0000000000000000000 ) ) ;
#44 = CONICAL_SURFACE ( 'NONE', #156, 0.4999999999999986122, 0.7853981633973015075 ) ;
#45 = CARTESIAN_POINT ( 'NONE',  ( 0.5000000000000000000, 0.0000000000000000000, 0.02000000000000000042 ) ) ;
#46 = DIRECTION ( 'NONE',  ( 0.0000000000000000000, 0.0000000000000000000, 1.000000000000000000 ) ) ;
#47 = ORGANIZATION ( 'UNSPECIFIED', 'UNSPECIFIED', '' ) ;
#48 = PERSON_AND_ORGANIZATION_ROLE ( 'classification_officer' ) ;
#49 = DIRECTION ( 'NONE',  ( 1.000000000000000000, 0.0000000000000000000, 0.0000000000000000000 ) ) ;
#50 = DIRECTION ( 'NONE',  ( 0.0000000000000000000, 0.0000000000000000000, 1.000000000000000000 ) ) ;
#51 = PERSON_AND_ORGANIZATION_ROLE ( 'design_owner' ) ;
#52 = AXIS2_PLACEMENT_3D ( 'NONE', #358, #298, #153 ) ;
#53 = EDGE_LOOP ( 'NONE', ( #375 ) ) ;
#54 = ORIENTED_EDGE ( 'NONE', *, *, #335, .T. ) ;
#55 = ORIENTED_EDGE ( 'NONE', *, *, #231, .T. ) ;
#56 = DIRECTION ( 'NONE',  ( 0.0000000000000000000, 0.0000000000000000000, 1.000000000000000000 ) ) ;
#57 = CARTESIAN_POINT ( 'NONE',  ( 0.1774999999999999911, 0.0000000000000000000, 0.0000000000000000000 ) ) ;
#58 = FACE_OUTER_BOUND ( 'NONE', #82, .T. ) ;
#59 = ADVANCED_FACE ( 'NONE', ( #196, #195 ), #313, .F. ) ;
#60 = DIRECTION ( 'NONE',  ( 1.000000000000000000, 0.0000000000000000000, -0.0000000000000000000 ) ) ;
#61 = DIRECTION ( 'NONE',  ( 1.000000000000000000, 0.0000000000000000000, 0.0000000000000000000 ) ) ;
#62 = CYLINDRICAL_SURFACE ( 'NONE', #96, 0.2500000000000000000 ) ;
#63 = MANIFOLD_SOLID_BREP ( 'OFFSET-1-solid1', #91 ) ;
#64 = PLANE ( 'NONE',  #296 ) ;
#65 = CARTESIAN_POINT ( 'NONE',  ( 0.2500000000000000000, 0.0000000000000000000, 0.0000000000000000000 ) ) ;
#66 = ADVANCED_FACE ( 'NONE', ( #24, #84 ), #172, .F. ) ;
#67 = CARTESIAN_POINT ( 'NONE',  ( 0.4060000000000000275, 0.0000000000000000000, 1.062000000000000055 ) ) ;
#68 = MANIFOLD_SOLID_BREP ( 'SEALING-WASHER-1-solid1', #16 ) ;
#69 = AXIS2_PLACEMENT_3D ( 'NONE', #101, #284, #263 ) ;
#70 = FACE_BOUND ( 'NONE', #83, .T. ) ;
#71 = SHAPE_DEFINITION_REPRESENTATION ( #203, #319 ) ;
#72 = ADVANCED_FACE ( 'NONE', ( #292, #238 ), #326, .F. ) ;
#73 = MECHANICAL_CONTEXT ( 'NONE', #204, 'mechanical' ) ;
#74 = CIRCLE ( 'NONE', #79, 0.4060000000000000275 ) ;
#75 = APPROVAL_DATE_TIME ( #131, #25 ) ;
#76 = DATE_TIME_ROLE ( 'creation_date' ) ;
#77 = ORIENTED_EDGE ( 'NONE', *, *, #271, .F. ) ;
#78 = EDGE_LOOP ( 'NONE', ( #371 ) ) ;
#79 = AXIS2_PLACEMENT_3D ( 'NONE', #177, #191, #230 ) ;
#80 = EDGE_CURVE ( 'NONE', #94, #94, #317, .T. ) ;
#81 = EDGE_LOOP ( 'NONE', ( #55 ) ) ;
#82 = EDGE_LOOP ( 'NONE', ( #167 ) ) ;
#83 = EDGE_LOOP ( 'NONE', ( #170 ) ) ;
#84 = FACE_OUTER_BOUND ( 'NONE', #256, .T. ) ;
#85 = AXIS2_PLACEMENT_3D ( 'NONE', #270, #127, #219 ) ;
#86 = DIRECTION ( 'NONE',  ( 1.000000000000000000, 0.0000000000000000000, 0.0000000000000000000 ) ) ;
#87 = CC_DESIGN_DATE_AND_TIME_ASSIGNMENT ( #154, #226, ( #133 ) ) ;
#88 = DIRECTION ( 'NONE',  ( 0.0000000000000000000, 0.0000000000000000000, 1.000000000000000000 ) ) ;
#89 = DIRECTION ( 'NONE',  ( 1.000000000000000000, 0.0000000000000000000, 0.0000000000000000000 ) ) ;
#90 = VERTEX_POINT ( 'NONE', #123 ) ;
#91 = CLOSED_SHELL ( 'NONE', ( #308, #193, #206, #130, #349, #369 ) ) ;
#92 = VERTEX_POINT ( 'NONE', #65 ) ;
#93 = DIRECTION ( 'NONE',  ( 0.0000000000000000000, 0.0000000000000000000, -1.000000000000000000 ) ) ;
#94 = VERTEX_POINT ( 'NONE', #67 ) ;
#95 =( CONVERSION_BASED_UNIT ( 'INCH', #41 ) LENGTH_UNIT ( ) NAMED_UNIT ( #259 ) );
#96 = AXIS2_PLACEMENT_3D ( 'NONE', #242, #301, #43 ) ;
#97 = PERSON_AND_ORGANIZATION_ROLE ( 'design_supplier' ) ;
#98 = ORIENTED_EDGE ( 'NONE', *, *, #304, .F. ) ;
#99 = APPROVAL_ROLE ( '' ) ;
#100 = CIRCLE ( 'NONE', #210, 0.1774999999999999911 ) ;
#101 = CARTESIAN_POINT ( 'NONE',  ( 0.0000000000000000000, 0.0000000000000000000, 0.0000000000000000000 ) ) ;
#102 = ORIENTED_EDGE ( 'NONE', *, *, #221, .T. ) ;
#103 = CC_DESIGN_PERSON_AND_ORGANIZATION_ASSIGNMENT ( #276, #51, ( #325 ) ) ;
#104 = CALENDAR_DATE ( 2021, 9, 2 ) ;
#105 = EDGE_LOOP ( 'NONE', ( #288 ) ) ;
#106 = ORIENTED_EDGE ( 'NONE', *, *, #13, .T. ) ;
#107 = APPROVAL_PERSON_ORGANIZATION ( #305, #347, #99 ) ;
#108 = CC_DESIGN_SECURITY_CLASSIFICATION ( #133, ( #171 ) ) ;
#109 = EDGE_LOOP ( 'NONE', ( #138 ) ) ;
#110 = EDGE_LOOP ( 'NONE', ( #28 ) ) ;
#111 = DIRECTION ( 'NONE',  ( 1.000000000000000000, 0.0000000000000000000, -0.0000000000000000000 ) ) ;
#112 = CARTESIAN_POINT ( 'NONE',  ( 0.0000000000000000000, 0.0000000000000000000, 0.01999999999998948105 ) ) ;
#113 = CC_DESIGN_PERSON_AND_ORGANIZATION_ASSIGNMENT ( #220, #48, ( #133 ) ) ;
#114 = ADVANCED_FACE ( 'NONE', ( #273, #294 ), #35, .T. ) ;
#115 = DIRECTION ( 'NONE',  ( 0.0000000000000000000, 0.0000000000000000000, 1.000000000000000000 ) ) ;
#116 = CIRCLE ( 'NONE', #33, 0.2500000000000000000 ) ;
#117 = FACE_BOUND ( 'NONE', #109, .T. ) ;
#118 = CARTESIAN_POINT ( 'NONE',  ( -0.4800000000000014255, 0.0000000000000000000, 1.000000000000001554 ) ) ;
#119 = VERTEX_POINT ( 'NONE', #213 ) ;
#120 = CC_DESIGN_APPROVAL ( #347, ( #137 ) ) ;
#121 = CARTESIAN_POINT ( 'NONE',  ( 0.0000000000000000000, 0.0000000000000000000, -0.06199999999999999956 ) ) ;
#122 = CARTESIAN_POINT ( 'NONE',  ( 0.0000000000000000000, 0.0000000000000000000, -0.06199999999999999956 ) ) ;
#123 = CARTESIAN_POINT ( 'NONE',  ( 0.1774999999999999911, 0.0000000000000000000, -0.06199999999999999956 ) ) ;
#124 = VERTEX_POINT ( 'NONE', #15 ) ;
#125 = CARTESIAN_POINT ( 'NONE',  ( 0.4060000000000000275, 0.0000000000000000000, 1.000000000000000000 ) ) ;
#126 = AXIS2_PLACEMENT_3D ( 'NONE', #180, #293, #174 ) ;
#127 = DIRECTION ( 'NONE',  ( -0.0000000000000000000, -0.0000000000000000000, -1.000000000000000000 ) ) ;
#128 = PERSON_AND_ORGANIZATION ( #168, #47 ) ;
#129 = SECURITY_CLASSIFICATION_LEVEL ( 'unclassified' ) ;
#130 = ADVANCED_FACE ( 'NONE', ( #142, #266 ), #64, .T. ) ;
#131 = DATE_AND_TIME ( #332, #278 ) ;
#132 = EDGE_LOOP ( 'NONE', ( #260 ) ) ;
#133 = SECURITY_CLASSIFICATION ( '', '', #129 ) ;
#134 = DATE_AND_TIME ( #336, #352 ) ;
#135 = ORIENTED_EDGE ( 'NONE', *, *, #271, .T. ) ;
#136 = EDGE_LOOP ( 'NONE', ( #339 ) ) ;
#137 = PRODUCT_DEFINITION ( 'UNKNOWN', '', #171, #215 ) ;
#138 = ORIENTED_EDGE ( 'NONE', *, *, #147, .T. ) ;
#139 = AXIS2_PLACEMENT_3D ( 'NONE', #255, #22, #364 ) ;
#140 = EDGE_LOOP ( 'NONE', ( #265 ) ) ;
#141 = CYLINDRICAL_SURFACE ( 'NONE', #69, 0.5000000000000000000 ) ;
#142 = FACE_BOUND ( 'NONE', #311, .T. ) ;
#143 = DIRECTION ( 'NONE',  ( 0.0000000000000000000, 0.0000000000000000000, 1.000000000000000000 ) ) ;
#144 = CC_DESIGN_PERSON_AND_ORGANIZATION_ASSIGNMENT ( #166, #97, ( #171 ) ) ;
#145 = CIRCLE ( 'NONE', #321, 0.4060000000000000275 ) ;
#146 = DIRECTION ( 'NONE',  ( 1.000000000000000000, 0.0000000000000000000, 0.0000000000000000000 ) ) ;
#147 = EDGE_CURVE ( 'NONE', #124, #124, #164, .T. ) ;
#148 = CARTESIAN_POINT ( 'NONE',  ( 0.5000000000000000000, 0.0000000000000000000, 0.9799999999999999822 ) ) ;
#149 =( NAMED_UNIT ( * ) PLANE_ANGLE_UNIT ( ) SI_UNIT ( $, .RADIAN. ) );
#150 = DIRECTION ( 'NONE',  ( 0.0000000000000000000, 0.0000000000000000000, 1.000000000000000000 ) ) ;
#151 = VERTEX_POINT ( 'NONE', #45 ) ;
#152 = ADVANCED_FACE ( 'NONE', ( #181, #58 ), #173, .F. ) ;
#153 = DIRECTION ( 'NONE',  ( 1.000000000000000000, 0.0000000000000000000, -0.0000000000000000000 ) ) ;
#154 = DATE_AND_TIME ( #104, #354 ) ;
#155 = AXIS2_PLACEMENT_3D ( 'NONE', #342, #227, #49 ) ;
#156 = AXIS2_PLACEMENT_3D ( 'NONE', #356, #93, #269 ) ;
#157 = EDGE_CURVE ( 'NONE', #184, #184, #261, .T. ) ;
#158 = PERSON_AND_ORGANIZATION ( #168, #47 ) ;
#159 = FACE_OUTER_BOUND ( 'NONE', #281, .T. ) ;
#160 = COORDINATED_UNIVERSAL_TIME_OFFSET ( 5, 0, .BEHIND. ) ;
#161 = EDGE_LOOP ( 'NONE', ( #169 ) ) ;
#162 = APPROVAL_STATUS ( 'not_yet_approved' ) ;
#163 = ORIENTED_EDGE ( 'NONE', *, *, #335, .F. ) ;
#164 = CIRCLE ( 'NONE', #297, 0.4800000000000135270 ) ;
#165 = FACE_OUTER_BOUND ( 'NONE', #105, .T. ) ;
#166 = PERSON_AND_ORGANIZATION ( #168, #47 ) ;
#167 = ORIENTED_EDGE ( 'NONE', *, *, #157, .T. ) ;
#168 = PERSON ( 'UNSPECIFIED', 'UNSPECIFIED', 'UNSPECIFIED', ('UNSPECIFIED'), ('UNSPECIFIED'), ('UNSPECIFIED') ) ;
#169 = ORIENTED_EDGE ( 'NONE', *, *, #80, .T. ) ;
#170 = ORIENTED_EDGE ( 'NONE', *, *, #221, .F. ) ;
#171 = PRODUCT_DEFINITION_FORMATION_WITH_SPECIFIED_SOURCE ( 'ANY', '', #325, .NOT_KNOWN. ) ;
#172 = PLANE ( 'NONE',  #2 ) ;
#173 = CYLINDRICAL_SURFACE ( 'NONE', #188, 0.1774999999999999911 ) ;
#174 = DIRECTION ( 'NONE',  ( -1.000000000000000000, 0.0000000000000000000, 0.0000000000000000000 ) ) ;
#175 = DIRECTION ( 'NONE',  ( -0.0000000000000000000, -0.0000000000000000000, -1.000000000000000000 ) ) ;
#176 = CONICAL_SURFACE ( 'NONE', #3, 0.5000000000000105471, 0.7853981633972998422 ) ;
#177 = CARTESIAN_POINT ( 'NONE',  ( 0.0000000000000000000, 0.0000000000000000000, 1.000000000000000000 ) ) ;
#178 = APPROVAL ( #162, 'UNSPECIFIED' ) ;
#179 =( LENGTH_UNIT ( ) NAMED_UNIT ( * ) SI_UNIT ( $, .METRE. ) );
#180 = CARTESIAN_POINT ( 'NONE',  ( 0.0000000000000000000, 0.0000000000000000000, 1.000000000000001554 ) ) ;
#181 = FACE_OUTER_BOUND ( 'NONE', #233, .T. ) ;
#182 = FACE_OUTER_BOUND ( 'NONE', #190, .T. ) ;
#183 = EDGE_CURVE ( 'NONE', #186, #186, #248, .T. ) ;
#184 = VERTEX_POINT ( 'NONE', #217 ) ;
#185 = EDGE_CURVE ( 'NONE', #355, #355, #145, .T. ) ;
#186 = VERTEX_POINT ( 'NONE', #303 ) ;
#187 = APPROVAL_DATE_TIME ( #134, #347 ) ;
#188 = AXIS2_PLACEMENT_3D ( 'NONE', #42, #150, #37 ) ;
#189 = MANIFOLD_SOLID_BREP ( 'SEALING-WASHER-2-solid1', #23 ) ;
#190 = EDGE_LOOP ( 'NONE', ( #29 ) ) ;
#191 = DIRECTION ( 'NONE',  ( 0.0000000000000000000, 0.0000000000000000000, 1.000000000000000000 ) ) ;
#192 = APPROVAL_STATUS ( 'not_yet_approved' ) ;
#193 = ADVANCED_FACE ( 'NONE', ( #245, #239 ), #44, .T. ) ;
#194 = EDGE_LOOP ( 'NONE', ( #135 ) ) ;
#195 = FACE_OUTER_BOUND ( 'NONE', #310, .T. ) ;
#196 = FACE_OUTER_BOUND ( 'NONE', #343, .T. ) ;
#197 = DIRECTION ( 'NONE',  ( -0.0000000000000000000, -0.0000000000000000000, -1.000000000000000000 ) ) ;
#198 = CARTESIAN_POINT ( 'NONE',  ( 0.0000000000000000000, 0.0000000000000000000, -0.06199999999999999956 ) ) ;
#199 = VERTEX_POINT ( 'NONE', #351 ) ;
#200 = DIRECTION ( 'NONE',  ( 0.0000000000000000000, 0.0000000000000000000, 1.000000000000000000 ) ) ;
#201 = LOCAL_TIME ( 17, 34, 0.0000000000000000000, #160 ) ;
#202 = CARTESIAN_POINT ( 'NONE',  ( 0.0000000000000000000, 0.0000000000000000000, 1.062000000000000055 ) ) ;
#203 = PRODUCT_DEFINITION_SHAPE ( 'NONE', 'NONE',  #137 ) ;
#204 = APPLICATION_CONTEXT ( 'configuration controlled 3d designs of mechanical parts and assemblies' ) ;
#205 = CARTESIAN_POINT ( 'NONE',  ( 0.0000000000000000000, 0.0000000000000000000, -1.345435136879649601E-14 ) ) ;
#206 = ADVANCED_FACE ( 'NONE', ( #4, #117 ), #176, .T. ) ;
#207 = CARTESIAN_POINT ( 'NONE',  ( 0.0000000000000000000, 0.0000000000000000000, 0.0000000000000000000 ) ) ;
#208 = DIRECTION ( 'NONE',  ( -0.0000000000000000000, -0.0000000000000000000, -1.000000000000000000 ) ) ;
#209 = DIRECTION ( 'NONE',  ( 0.0000000000000000000, 0.0000000000000000000, 1.000000000000000000 ) ) ;
#210 = AXIS2_PLACEMENT_3D ( 'NONE', #31, #197, #234 ) ;
#211 = CC_DESIGN_APPROVAL ( #25, ( #133 ) ) ;
#212 = DIRECTION ( 'NONE',  ( 1.000000000000000000, 0.0000000000000000000, 0.0000000000000000000 ) ) ;
#213 = CARTESIAN_POINT ( 'NONE',  ( 0.4060000000000000275, 0.0000000000000000000, 0.0000000000000000000 ) ) ;
#214 = DIRECTION ( 'NONE',  ( 1.000000000000000000, 0.0000000000000000000, 0.0000000000000000000 ) ) ;
#215 = DESIGN_CONTEXT ( 'detailed design', #240, 'design' ) ;
#216 = CC_DESIGN_PERSON_AND_ORGANIZATION_ASSIGNMENT ( #128, #20, ( #137 ) ) ;
#217 = CARTESIAN_POINT ( 'NONE',  ( 0.1774999999999999911, 0.0000000000000000000, 1.000000000000000000 ) ) ;
#218 = AXIS2_PLACEMENT_3D ( 'NONE', #267, #208, #322 ) ;
#219 = DIRECTION ( 'NONE',  ( 1.000000000000000000, 0.0000000000000000000, 0.0000000000000000000 ) ) ;
#220 = PERSON_AND_ORGANIZATION ( #168, #47 ) ;
#221 = EDGE_CURVE ( 'NONE', #92, #92, #116, .T. ) ;
#222 = CALENDAR_DATE ( 2021, 9, 2 ) ;
#223 = PERSON_AND_ORGANIZATION ( #168, #47 ) ;
#224 = CIRCLE ( 'NONE', #253, 0.5000000000000000000 ) ;
#225 = ORIENTED_EDGE ( 'NONE', *, *, #185, .T. ) ;
#226 = DATE_TIME_ROLE ( 'classification_date' ) ;
#227 = DIRECTION ( 'NONE',  ( -0.0000000000000000000, -0.0000000000000000000, -1.000000000000000000 ) ) ;
#228 = ORIENTED_EDGE ( 'NONE', *, *, #246, .F. ) ;
#229 = AXIS2_PLACEMENT_3D ( 'NONE', #275, #46, #214 ) ;
#230 = DIRECTION ( 'NONE',  ( 1.000000000000000000, 0.0000000000000000000, 0.0000000000000000000 ) ) ;
#231 = EDGE_CURVE ( 'NONE', #12, #12, #307, .T. ) ;
#232 = EDGE_LOOP ( 'NONE', ( #360 ) ) ;
#233 = EDGE_LOOP ( 'NONE', ( #98 ) ) ;
#234 = DIRECTION ( 'NONE',  ( 1.000000000000000000, 0.0000000000000000000, 0.0000000000000000000 ) ) ;
#235 = DIRECTION ( 'NONE',  ( 1.000000000000000000, 0.0000000000000000000, -0.0000000000000000000 ) ) ;
#236 = DIRECTION ( 'NONE',  ( 0.0000000000000000000, 0.0000000000000000000, 1.000000000000000000 ) ) ;
#237 = AXIS2_PLACEMENT_3D ( 'NONE', #26, #200, #60 ) ;
#238 = FACE_OUTER_BOUND ( 'NONE', #78, .T. ) ;
#239 = FACE_BOUND ( 'NONE', #194, .T. ) ;
#240 = APPLICATION_CONTEXT ( 'configuration controlled 3d designs of mechanical parts and assemblies' ) ;
#241 = CARTESIAN_POINT ( 'NONE',  ( 0.0000000000000000000, 0.0000000000000000000, 0.0000000000000000000 ) ) ;
#242 = CARTESIAN_POINT ( 'NONE',  ( 0.0000000000000000000, 0.0000000000000000000, 0.0000000000000000000 ) ) ;
#243 = PLANE ( 'NONE',  #52 ) ;
#244 = AXIS2_PLACEMENT_3D ( 'NONE', #295, #38, #9 ) ;
#245 = FACE_OUTER_BOUND ( 'NONE', #53, .T. ) ;
#246 = EDGE_CURVE ( 'NONE', #327, #327, #74, .T. ) ;
#247 = FACE_OUTER_BOUND ( 'NONE', #161, .T. ) ;
#248 = CIRCLE ( 'NONE', #244, 0.2500000000000000000 ) ;
#249 = COORDINATED_UNIVERSAL_TIME_OFFSET ( 5, 0, .BEHIND. ) ;
#250 = APPLICATION_PROTOCOL_DEFINITION ( 'international standard', 'config_control_design', 1994, #240 ) ;
#251 = EDGE_CURVE ( 'NONE', #151, #151, #224, .T. ) ;
#252 = EDGE_LOOP ( 'NONE', ( #225 ) ) ;
#253 = AXIS2_PLACEMENT_3D ( 'NONE', #282, #50, #290 ) ;
#254 = ADVANCED_FACE ( 'NONE', ( #262, #165 ), #286, .T. ) ;
#255 = CARTESIAN_POINT ( 'NONE',  ( 0.0000000000000000000, 0.0000000000000000000, 0.0000000000000000000 ) ) ;
#256 = EDGE_LOOP ( 'NONE', ( #228 ) ) ;
#257 = FACE_BOUND ( 'NONE', #81, .T. ) ;
#258 = EDGE_LOOP ( 'NONE', ( #102 ) ) ;
#259 = DIMENSIONAL_EXPONENTS ( 1.000000000000000000, 0.0000000000000000000, 0.0000000000000000000, 0.0000000000000000000, 0.0000000000000000000, 0.0000000000000000000, 0.0000000000000000000 ) ;
#260 = ORIENTED_EDGE ( 'NONE', *, *, #304, .T. ) ;
#261 = CIRCLE ( 'NONE', #312, 0.1774999999999999911 ) ;
#262 = FACE_BOUND ( 'NONE', #132, .T. ) ;
#263 = DIRECTION ( 'NONE',  ( 1.000000000000000000, 0.0000000000000000000, 0.0000000000000000000 ) ) ;
#264 = FACE_OUTER_BOUND ( 'NONE', #232, .T. ) ;
#265 = ORIENTED_EDGE ( 'NONE', *, *, #246, .T. ) ;
#266 = FACE_OUTER_BOUND ( 'NONE', #315, .T. ) ;
#267 = CARTESIAN_POINT ( 'NONE',  ( 0.0000000000000000000, 0.0000000000000000000, 0.9799999999999999822 ) ) ;
#268 = DIRECTION ( 'NONE',  ( -0.0000000000000000000, -0.0000000000000000000, -1.000000000000000000 ) ) ;
#269 = DIRECTION ( 'NONE',  ( -1.000000000000000000, 0.0000000000000000000, 0.0000000000000000000 ) ) ;
#270 = CARTESIAN_POINT ( 'NONE',  ( 0.0000000000000000000, 0.0000000000000000000, 1.062000000000000055 ) ) ;
#271 = EDGE_CURVE ( 'NONE', #40, #40, #346, .T. ) ;
#272 = CARTESIAN_POINT ( 'NONE',  ( 0.0000000000000000000, 0.0000000000000000000, 0.0000000000000000000 ) ) ;
#273 = FACE_OUTER_BOUND ( 'NONE', #337, .T. ) ;
#274 = DIRECTION ( 'NONE',  ( 1.000000000000000000, 0.0000000000000000000, -0.0000000000000000000 ) ) ;
#275 = CARTESIAN_POINT ( 'NONE',  ( 0.0000000000000000000, 0.0000000000000000000, 1.000000000000000000 ) ) ;
#276 = PERSON_AND_ORGANIZATION ( #168, #47 ) ;
#277 =( GEOMETRIC_REPRESENTATION_CONTEXT ( 3 ) GLOBAL_UNCERTAINTY_ASSIGNED_CONTEXT ( ( #357 ) ) GLOBAL_UNIT_ASSIGNED_CONTEXT ( ( #95, #149, #14 ) ) REPRESENTATION_CONTEXT ( 'NONE', 'WORKASPACE' ) );
#278 = LOCAL_TIME ( 17, 34, 0.0000000000000000000, #362 ) ;
#279 = PERSON_AND_ORGANIZATION ( #168, #47 ) ;
#280 = APPROVAL_STATUS ( 'not_yet_approved' ) ;
#281 = EDGE_LOOP ( 'NONE', ( #366 ) ) ;
#282 = CARTESIAN_POINT ( 'NONE',  ( 0.0000000000000000000, 0.0000000000000000000, 0.02000000000000000042 ) ) ;
#283 = COORDINATED_UNIVERSAL_TIME_OFFSET ( 5, 0, .BEHIND. ) ;
#284 = DIRECTION ( 'NONE',  ( 0.0000000000000000000, 0.0000000000000000000, 1.000000000000000000 ) ) ;
#285 = DIRECTION ( 'NONE',  ( 1.000000000000000000, 0.0000000000000000000, 0.0000000000000000000 ) ) ;
#286 = PLANE ( 'NONE',  #237 ) ;
#287 = EDGE_LOOP ( 'NONE', ( #163 ) ) ;
#288 = ORIENTED_EDGE ( 'NONE', *, *, #80, .F. ) ;
#289 = PRODUCT_RELATED_PRODUCT_CATEGORY ( 'detail', '', ( #325 ) ) ;
#290 = DIRECTION ( 'NONE',  ( 1.000000000000000000, 0.0000000000000000000, 0.0000000000000000000 ) ) ;
#291 = ORIENTED_EDGE ( 'NONE', *, *, #231, .F. ) ;
#292 = FACE_BOUND ( 'NONE', #287, .T. ) ;
#293 = DIRECTION ( 'NONE',  ( 0.0000000000000000000, 0.0000000000000000000, -1.000000000000000000 ) ) ;
#294 = FACE_OUTER_BOUND ( 'NONE', #252, .T. ) ;
#295 = CARTESIAN_POINT ( 'NONE',  ( 0.0000000000000000000, 0.0000000000000000000, 1.000000000000000000 ) ) ;
#296 = AXIS2_PLACEMENT_3D ( 'NONE', #376, #115, #111 ) ;
#297 = AXIS2_PLACEMENT_3D ( 'NONE', #205, #344, #36 ) ;
#298 = DIRECTION ( 'NONE',  ( 0.0000000000000000000, 0.0000000000000000000, 1.000000000000000000 ) ) ;
#299 = EDGE_CURVE ( 'NONE', #316, #316, #18, .T. ) ;
#300 = DIRECTION ( 'NONE',  ( 1.000000000000000000, 0.0000000000000000000, -0.0000000000000000000 ) ) ;
#301 = DIRECTION ( 'NONE',  ( 0.0000000000000000000, 0.0000000000000000000, 1.000000000000000000 ) ) ;
#302 = CC_DESIGN_APPROVAL ( #178, ( #171 ) ) ;
#303 = CARTESIAN_POINT ( 'NONE',  ( 0.2500000000000000000, 0.0000000000000000000, 1.000000000000000000 ) ) ;
#304 = EDGE_CURVE ( 'NONE', #199, #199, #372, .T. ) ;
#305 = PERSON_AND_ORGANIZATION ( #168, #47 ) ;
#306 = APPROVAL_ROLE ( '' ) ;
#307 = CIRCLE ( 'NONE', #359, 0.1774999999999999911 ) ;
#308 = ADVANCED_FACE ( 'NONE', ( #159, #10 ), #141, .T. ) ;
#309 = DATE_AND_TIME ( #361, #334 ) ;
#310 = EDGE_LOOP ( 'NONE', ( #54 ) ) ;
#311 = EDGE_LOOP ( 'NONE', ( #314 ) ) ;
#312 = AXIS2_PLACEMENT_3D ( 'NONE', #7, #175, #212 ) ;
#313 = CYLINDRICAL_SURFACE ( 'NONE', #333, 0.1774999999999999911 ) ;
#314 = ORIENTED_EDGE ( 'NONE', *, *, #183, .T. ) ;
#315 = EDGE_LOOP ( 'NONE', ( #77 ) ) ;
#316 = VERTEX_POINT ( 'NONE', #148 ) ;
#317 = CIRCLE ( 'NONE', #345, 0.4060000000000000275 ) ;
#318 = DIRECTION ( 'NONE',  ( 1.000000000000000000, 0.0000000000000000000, 0.0000000000000000000 ) ) ;
#319 = ADVANCED_BREP_SHAPE_REPRESENTATION ( 'SCE-WMS1SS', ( #63, #68, #189, #139 ), #277 ) ;
#320 = DIRECTION ( 'NONE',  ( -0.0000000000000000000, -0.0000000000000000000, -1.000000000000000000 ) ) ;
#321 = AXIS2_PLACEMENT_3D ( 'NONE', #121, #324, #146 ) ;
#322 = DIRECTION ( 'NONE',  ( 1.000000000000000000, 0.0000000000000000000, 0.0000000000000000000 ) ) ;
#323 = FACE_OUTER_BOUND ( 'NONE', #368, .T. ) ;
#324 = DIRECTION ( 'NONE',  ( 0.0000000000000000000, 0.0000000000000000000, 1.000000000000000000 ) ) ;
#325 = PRODUCT ( 'SCE-WMS1SS', 'SCE-WMS1SS', '', ( #73 ) ) ;
#326 = PLANE ( 'NONE',  #30 ) ;
#327 = VERTEX_POINT ( 'NONE', #125 ) ;
#328 = CYLINDRICAL_SURFACE ( 'NONE', #229, 0.4060000000000000275 ) ;
#329 = FACE_OUTER_BOUND ( 'NONE', #258, .T. ) ;
#330 = AXIS2_PLACEMENT_3D ( 'NONE', #272, #209, #274 ) ;
#331 = DATE_AND_TIME ( #222, #201 ) ;
#332 = CALENDAR_DATE ( 2021, 9, 2 ) ;
#333 = AXIS2_PLACEMENT_3D ( 'NONE', #198, #21, #285 ) ;
#334 = LOCAL_TIME ( 17, 34, 0.0000000000000000000, #249 ) ;
#335 = EDGE_CURVE ( 'NONE', #90, #90, #100, .T. ) ;
#336 = CALENDAR_DATE ( 2021, 9, 2 ) ;
#337 = EDGE_LOOP ( 'NONE', ( #106 ) ) ;
#338 = APPROVAL_DATE_TIME ( #331, #178 ) ;
#339 = ORIENTED_EDGE ( 'NONE', *, *, #157, .F. ) ;
#340 = ADVANCED_FACE ( 'NONE', ( #257, #264 ), #34, .T. ) ;
#341 = EDGE_LOOP ( 'NONE', ( #370 ) ) ;
#342 = CARTESIAN_POINT ( 'NONE',  ( 0.0000000000000000000, 0.0000000000000000000, 0.0000000000000000000 ) ) ;
#343 = EDGE_LOOP ( 'NONE', ( #291 ) ) ;
#344 = DIRECTION ( 'NONE',  ( 0.0000000000000000000, 0.0000000000000000000, 1.000000000000000000 ) ) ;
#345 = AXIS2_PLACEMENT_3D ( 'NONE', #202, #268, #348 ) ;
#346 = CIRCLE ( 'NONE', #126, 0.4800000000000014255 ) ;
#347 = APPROVAL ( #280, 'UNSPECIFIED' ) ;
#348 = DIRECTION ( 'NONE',  ( 1.000000000000000000, 0.0000000000000000000, 0.0000000000000000000 ) ) ;
#349 = ADVANCED_FACE ( 'NONE', ( #70, #323 ), #243, .F. ) ;
#350 = DIRECTION ( 'NONE',  ( -0.0000000000000000000, -0.0000000000000000000, -1.000000000000000000 ) ) ;
#351 = CARTESIAN_POINT ( 'NONE',  ( 0.1774999999999999911, 0.0000000000000000000, 1.062000000000000055 ) ) ;
#352 = LOCAL_TIME ( 17, 34, 0.0000000000000000000, #17 ) ;
#353 = CIRCLE ( 'NONE', #155, 0.4060000000000000275 ) ;
#354 = LOCAL_TIME ( 17, 34, 0.0000000000000000000, #283 ) ;
#355 = VERTEX_POINT ( 'NONE', #6 ) ;
#356 = CARTESIAN_POINT ( 'NONE',  ( 0.0000000000000000000, 0.0000000000000000000, 0.9799999999999984279 ) ) ;
#357 = UNCERTAINTY_MEASURE_WITH_UNIT (LENGTH_MEASURE( 1.000000000000000082E-05 ), #95, 'distance_accuracy_value', 'NONE');
#358 = CARTESIAN_POINT ( 'NONE',  ( 0.0000000000000000000, 0.0000000000000000000, 0.0000000000000000000 ) ) ;
#359 = AXIS2_PLACEMENT_3D ( 'NONE', #207, #320, #61 ) ;
#360 = ORIENTED_EDGE ( 'NONE', *, *, #13, .F. ) ;
#361 = CALENDAR_DATE ( 2021, 9, 2 ) ;
#362 = COORDINATED_UNIVERSAL_TIME_OFFSET ( 5, 0, .BEHIND. ) ;
#363 = CC_DESIGN_PERSON_AND_ORGANIZATION_ASSIGNMENT ( #223, #367, ( #171 ) ) ;
#364 = DIRECTION ( 'NONE',  ( 1.000000000000000000, 0.0000000000000000000, 0.0000000000000000000 ) ) ;
#365 = APPROVAL_PERSON_ORGANIZATION ( #158, #178, #306 ) ;
#366 = ORIENTED_EDGE ( 'NONE', *, *, #251, .T. ) ;
#367 = PERSON_AND_ORGANIZATION_ROLE ( 'creator' ) ;
#368 = EDGE_LOOP ( 'NONE', ( #32 ) ) ;
#369 = ADVANCED_FACE ( 'NONE', ( #182, #329 ), #62, .F. ) ;
#370 = ORIENTED_EDGE ( 'NONE', *, *, #251, .F. ) ;
#371 = ORIENTED_EDGE ( 'NONE', *, *, #185, .F. ) ;
#372 = CIRCLE ( 'NONE', #85, 0.1774999999999999911 ) ;
#373 = APPROVAL_PERSON_ORGANIZATION ( #279, #25, #19 ) ;
#374 = ADVANCED_FACE ( 'NONE', ( #247, #8 ), #328, .T. ) ;
#375 = ORIENTED_EDGE ( 'NONE', *, *, #299, .F. ) ;
#376 = CARTESIAN_POINT ( 'NONE',  ( 0.0000000000000000000, 0.0000000000000000000, 1.000000000000000000 ) ) ;
ENDSEC;
END-ISO-10303-21;
