ISO-10303-21;
HEADER;
FILE_DESCRIPTION (( 'STEP AP203' ),
    '1' );
FILE_NAME ('SCE-WMS2SS.step',
    '2021-02-09T22:34:02',
    ( 'ADC123' ),
    ( 'Microsoft' ),
    'SwSTEP 2.0',
    'SolidWorks 2019',
    '' );
FILE_SCHEMA (( 'CONFIG_CONTROL_DESIGN' ));
ENDSEC;

DATA;
#1 = CARTESIAN_POINT ( 'NONE',  ( 0.1774999999999999911, 0.0000000000000000000, -0.06199999999999999956 ) ) ;
#2 = CIRCLE ( 'NONE', #215, 0.1774999999999999911 ) ;
#3 = CARTESIAN_POINT ( 'NONE',  ( 0.1774999999999999911, 0.0000000000000000000, 0.0000000000000000000 ) ) ;
#4 = EDGE_LOOP ( 'NONE', ( #188 ) ) ;
#5 = VERTEX_POINT ( 'NONE', #144 ) ;
#6 = ADVANCED_FACE ( 'NONE', ( #308, #310 ), #185, .T. ) ;
#7 = CC_DESIGN_PERSON_AND_ORGANIZATION_ASSIGNMENT ( #117, #218, ( #91 ) ) ;
#8 = DIRECTION ( 'NONE',  ( 1.000000000000000000, 0.0000000000000000000, 0.0000000000000000000 ) ) ;
#9 = AXIS2_PLACEMENT_3D ( 'NONE', #238, #31, #32 ) ;
#10 = AXIS2_PLACEMENT_3D ( 'NONE', #23, #162, #52 ) ;
#11 = DATE_TIME_ROLE ( 'creation_date' ) ;
#12 = EDGE_LOOP ( 'NONE', ( #294 ) ) ;
#13 = PRODUCT_DEFINITION_SHAPE ( 'NONE', 'NONE',  #228 ) ;
#14 = DIRECTION ( 'NONE',  ( 1.000000000000000000, 0.0000000000000000000, 0.0000000000000000000 ) ) ;
#15 = CARTESIAN_POINT ( 'NONE',  ( 0.0000000000000000000, 0.0000000000000000000, 2.000000000000000000 ) ) ;
#16 = AXIS2_PLACEMENT_3D ( 'NONE', #339, #365, #315 ) ;
#17 = APPROVAL_DATE_TIME ( #124, #338 ) ;
#18 = DIRECTION ( 'NONE',  ( -0.0000000000000000000, -0.0000000000000000000, -1.000000000000000000 ) ) ;
#19 = CYLINDRICAL_SURFACE ( 'NONE', #132, 0.5000000000000000000 ) ;
#20 = EDGE_LOOP ( 'NONE', ( #211 ) ) ;
#21 = DIRECTION ( 'NONE',  ( 1.000000000000000000, 0.0000000000000000000, -0.0000000000000000000 ) ) ;
#22 = CIRCLE ( 'NONE', #305, 0.4800000000000080869 ) ;
#23 = CARTESIAN_POINT ( 'NONE',  ( 0.0000000000000000000, 0.0000000000000000000, 0.0000000000000000000 ) ) ;
#24 = FACE_OUTER_BOUND ( 'NONE', #269, .T. ) ;
#25 = ORIENTED_EDGE ( 'NONE', *, *, #205, .F. ) ;
#26 = CARTESIAN_POINT ( 'NONE',  ( 0.0000000000000000000, 0.0000000000000000000, 0.0000000000000000000 ) ) ;
#27 = EDGE_LOOP ( 'NONE', ( #261 ) ) ;
#28 = VERTEX_POINT ( 'NONE', #3 ) ;
#29 = ORIENTED_EDGE ( 'NONE', *, *, #214, .F. ) ;
#30 = APPLICATION_PROTOCOL_DEFINITION ( 'international standard', 'config_control_design', 1994, #130 ) ;
#31 = DIRECTION ( 'NONE',  ( 0.0000000000000000000, 0.0000000000000000000, 1.000000000000000000 ) ) ;
#32 = DIRECTION ( 'NONE',  ( 1.000000000000000000, 0.0000000000000000000, -0.0000000000000000000 ) ) ;
#33 = EDGE_CURVE ( 'NONE', #63, #63, #230, .T. ) ;
#34 = CALENDAR_DATE ( 2021, 9, 2 ) ;
#35 = CALENDAR_DATE ( 2021, 9, 2 ) ;
#36 = CIRCLE ( 'NONE', #314, 0.4060000000000000275 ) ;
#37 = CYLINDRICAL_SURFACE ( 'NONE', #199, 0.4060000000000000275 ) ;
#38 = EDGE_CURVE ( 'NONE', #146, #146, #104, .T. ) ;
#39 = ORIENTED_EDGE ( 'NONE', *, *, #375, .F. ) ;
#40 = CARTESIAN_POINT ( 'NONE',  ( 0.0000000000000000000, 0.0000000000000000000, 2.000000000000000000 ) ) ;
#41 = PERSON_AND_ORGANIZATION ( #227, #296 ) ;
#42 = ORIENTED_EDGE ( 'NONE', *, *, #38, .F. ) ;
#43 = AXIS2_PLACEMENT_3D ( 'NONE', #257, #373, #346 ) ;
#44 = CARTESIAN_POINT ( 'NONE',  ( 0.0000000000000000000, 0.0000000000000000000, -0.06199999999999999956 ) ) ;
#45 = EDGE_LOOP ( 'NONE', ( #97 ) ) ;
#46 = CARTESIAN_POINT ( 'NONE',  ( 0.0000000000000000000, 0.0000000000000000000, 0.02000000000000000042 ) ) ;
#47 = CARTESIAN_POINT ( 'NONE',  ( 0.0000000000000000000, 0.0000000000000000000, 0.01999999999999499747 ) ) ;
#48 = AXIS2_PLACEMENT_3D ( 'NONE', #106, #341, #161 ) ;
#49 = ADVANCED_FACE ( 'NONE', ( #128, #284 ), #263, .T. ) ;
#50 = DIMENSIONAL_EXPONENTS ( 1.000000000000000000, 0.0000000000000000000, 0.0000000000000000000, 0.0000000000000000000, 0.0000000000000000000, 0.0000000000000000000, 0.0000000000000000000 ) ;
#51 = DIRECTION ( 'NONE',  ( 1.000000000000000000, 0.0000000000000000000, 0.0000000000000000000 ) ) ;
#52 = DIRECTION ( 'NONE',  ( 1.000000000000000000, 0.0000000000000000000, -0.0000000000000000000 ) ) ;
#53 = DIRECTION ( 'NONE',  ( 1.000000000000000000, 0.0000000000000000000, -0.0000000000000000000 ) ) ;
#54 = AXIS2_PLACEMENT_3D ( 'NONE', #293, #191, #21 ) ;
#55 = LOCAL_TIME ( 17, 34, 2.000000000000000000, #127 ) ;
#56 = VERTEX_POINT ( 'NONE', #327 ) ;
#57 = EDGE_CURVE ( 'NONE', #299, #299, #61, .T. ) ;
#58 = APPROVAL ( #366, 'UNSPECIFIED' ) ;
#59 = EDGE_LOOP ( 'NONE', ( #142 ) ) ;
#60 = FACE_OUTER_BOUND ( 'NONE', #270, .T. ) ;
#61 = CIRCLE ( 'NONE', #355, 0.4060000000000000275 ) ;
#62 = CARTESIAN_POINT ( 'NONE',  ( 0.2500000000000000000, 0.0000000000000000000, 0.0000000000000000000 ) ) ;
#63 = VERTEX_POINT ( 'NONE', #266 ) ;
#64 = COORDINATED_UNIVERSAL_TIME_OFFSET ( 5, 0, .BEHIND. ) ;
#65 = CARTESIAN_POINT ( 'NONE',  ( 0.0000000000000000000, 0.0000000000000000000, 2.000000000000251354 ) ) ;
#66 = AXIS2_PLACEMENT_3D ( 'NONE', #76, #160, #316 ) ;
#67 = FACE_BOUND ( 'NONE', #20, .T. ) ;
#68 = CC_DESIGN_PERSON_AND_ORGANIZATION_ASSIGNMENT ( #147, #247, ( #228 ) ) ;
#69 = PERSON_AND_ORGANIZATION ( #227, #296 ) ;
#70 = FACE_OUTER_BOUND ( 'NONE', #201, .T. ) ;
#71 = MANIFOLD_SOLID_BREP ( 'SEALING-WASHER-2-solid1', #274 ) ;
#72 = FACE_OUTER_BOUND ( 'NONE', #45, .T. ) ;
#73 = MANIFOLD_SOLID_BREP ( 'OFFSET-1-solid1', #125 ) ;
#74 = EDGE_CURVE ( 'NONE', #5, #5, #204, .T. ) ;
#75 = DIRECTION ( 'NONE',  ( 1.000000000000000000, 0.0000000000000000000, 0.0000000000000000000 ) ) ;
#76 = CARTESIAN_POINT ( 'NONE',  ( 0.0000000000000000000, 0.0000000000000000000, 2.000000000000000000 ) ) ;
#77 = CARTESIAN_POINT ( 'NONE',  ( 0.0000000000000000000, 0.0000000000000000000, -7.922359181626363531E-15 ) ) ;
#78 = EDGE_CURVE ( 'NONE', #295, #295, #280, .T. ) ;
#79 = DIRECTION ( 'NONE',  ( 0.0000000000000000000, 0.0000000000000000000, 1.000000000000000000 ) ) ;
#80 = AXIS2_PLACEMENT_3D ( 'NONE', #250, #99, #367 ) ;
#81 = FACE_OUTER_BOUND ( 'NONE', #12, .T. ) ;
#82 = APPROVAL ( #331, 'UNSPECIFIED' ) ;
#83 = DIRECTION ( 'NONE',  ( -0.0000000000000000000, -0.0000000000000000000, -1.000000000000000000 ) ) ;
#84 = DIRECTION ( 'NONE',  ( 1.000000000000000000, 0.0000000000000000000, 0.0000000000000000000 ) ) ;
#85 = AXIS2_PLACEMENT_3D ( 'NONE', #103, #292, #134 ) ;
#86 = UNCERTAINTY_MEASURE_WITH_UNIT (LENGTH_MEASURE( 1.000000000000000082E-05 ), #233, 'distance_accuracy_value', 'NONE');
#87 = VERTEX_POINT ( 'NONE', #354 ) ;
#88 = EDGE_LOOP ( 'NONE', ( #39 ) ) ;
#89 = AXIS2_PLACEMENT_3D ( 'NONE', #129, #253, #369 ) ;
#90 = CARTESIAN_POINT ( 'NONE',  ( 0.0000000000000000000, 0.0000000000000000000, 0.0000000000000000000 ) ) ;
#91 = SECURITY_CLASSIFICATION ( '', '', #151 ) ;
#92 = COORDINATED_UNIVERSAL_TIME_OFFSET ( 5, 0, .BEHIND. ) ;
#93 = CARTESIAN_POINT ( 'NONE',  ( 0.0000000000000000000, 0.0000000000000000000, -0.06199999999999999956 ) ) ;
#94 = FACE_OUTER_BOUND ( 'NONE', #256, .T. ) ;
#95 = PERSON_AND_ORGANIZATION ( #227, #296 ) ;
#96 = AXIS2_PLACEMENT_3D ( 'NONE', #374, #109, #53 ) ;
#97 = ORIENTED_EDGE ( 'NONE', *, *, #78, .F. ) ;
#98 = CALENDAR_DATE ( 2021, 9, 2 ) ;
#99 = DIRECTION ( 'NONE',  ( 0.0000000000000000000, 0.0000000000000000000, 1.000000000000000000 ) ) ;
#100 = APPROVAL_ROLE ( '' ) ;
#101 = DIRECTION ( 'NONE',  ( -0.0000000000000000000, -0.0000000000000000000, -1.000000000000000000 ) ) ;
#102 = EDGE_LOOP ( 'NONE', ( #248 ) ) ;
#103 = CARTESIAN_POINT ( 'NONE',  ( 0.0000000000000000000, 0.0000000000000000000, -0.06199999999999999956 ) ) ;
#104 = CIRCLE ( 'NONE', #148, 0.5000000000000000000 ) ;
#105 = ADVANCED_FACE ( 'NONE', ( #70, #184 ), #37, .T. ) ;
#106 = CARTESIAN_POINT ( 'NONE',  ( 0.0000000000000000000, 0.0000000000000000000, 2.061999999999999833 ) ) ;
#107 = ADVANCED_BREP_SHAPE_REPRESENTATION ( 'SCE-WMS2SS', ( #73, #323, #71, #193 ), #239 ) ;
#108 = FACE_OUTER_BOUND ( 'NONE', #174, .T. ) ;
#109 = DIRECTION ( 'NONE',  ( 0.0000000000000000000, 0.0000000000000000000, 1.000000000000000000 ) ) ;
#110 = PLANE ( 'NONE',  #96 ) ;
#111 = EDGE_CURVE ( 'NONE', #268, #268, #36, .T. ) ;
#112 = CC_DESIGN_DATE_AND_TIME_ASSIGNMENT ( #336, #212, ( #91 ) ) ;
#113 = CIRCLE ( 'NONE', #186, 0.2500000000000000000 ) ;
#114 = CARTESIAN_POINT ( 'NONE',  ( 0.5000000000000000000, 0.0000000000000000000, 0.02000000000000000042 ) ) ;
#115 = CARTESIAN_POINT ( 'NONE',  ( 0.5000000000000000000, 0.0000000000000000000, 1.979999999999999982 ) ) ;
#116 = CIRCLE ( 'NONE', #165, 0.1774999999999999911 ) ;
#117 = PERSON_AND_ORGANIZATION ( #227, #296 ) ;
#118 = DIRECTION ( 'NONE',  ( 0.0000000000000000000, 0.0000000000000000000, -1.000000000000000000 ) ) ;
#119 = ADVANCED_FACE ( 'NONE', ( #244, #94 ), #213, .F. ) ;
#120 = PERSON_AND_ORGANIZATION_ROLE ( 'design_owner' ) ;
#121 = EDGE_LOOP ( 'NONE', ( #154 ) ) ;
#122 = EDGE_LOOP ( 'NONE', ( #326 ) ) ;
#123 = DIRECTION ( 'NONE',  ( 0.0000000000000000000, 0.0000000000000000000, 1.000000000000000000 ) ) ;
#124 = DATE_AND_TIME ( #98, #55 ) ;
#125 = CLOSED_SHELL ( 'NONE', ( #170, #49, #242, #300, #267, #251 ) ) ;
#126 = DIRECTION ( 'NONE',  ( 1.000000000000000000, 0.0000000000000000000, 0.0000000000000000000 ) ) ;
#127 = COORDINATED_UNIVERSAL_TIME_OFFSET ( 5, 0, .BEHIND. ) ;
#128 = FACE_OUTER_BOUND ( 'NONE', #350, .T. ) ;
#129 = CARTESIAN_POINT ( 'NONE',  ( 0.0000000000000000000, 0.0000000000000000000, 2.000000000000000000 ) ) ;
#130 = APPLICATION_CONTEXT ( 'configuration controlled 3d designs of mechanical parts and assemblies' ) ;
#131 = FACE_BOUND ( 'NONE', #276, .T. ) ;
#132 = AXIS2_PLACEMENT_3D ( 'NONE', #342, #231, #136 ) ;
#133 = PRODUCT_DEFINITION_FORMATION_WITH_SPECIFIED_SOURCE ( 'ANY', '', #176, .NOT_KNOWN. ) ;
#134 = DIRECTION ( 'NONE',  ( 1.000000000000000000, 0.0000000000000000000, 0.0000000000000000000 ) ) ;
#135 = DIRECTION ( 'NONE',  ( 0.0000000000000000000, 0.0000000000000000000, 1.000000000000000000 ) ) ;
#136 = DIRECTION ( 'NONE',  ( 1.000000000000000000, 0.0000000000000000000, 0.0000000000000000000 ) ) ;
#137 = EDGE_LOOP ( 'NONE', ( #196 ) ) ;
#138 = EDGE_CURVE ( 'NONE', #272, #272, #234, .T. ) ;
#139 = AXIS2_PLACEMENT_3D ( 'NONE', #277, #101, #217 ) ;
#140 = CC_DESIGN_APPROVAL ( #338, ( #133 ) ) ;
#141 = FACE_BOUND ( 'NONE', #258, .T. ) ;
#142 = ORIENTED_EDGE ( 'NONE', *, *, #38, .T. ) ;
#143 = ADVANCED_FACE ( 'NONE', ( #67, #72 ), #182, .T. ) ;
#144 = CARTESIAN_POINT ( 'NONE',  ( -0.4800000000002516143, 0.0000000000000000000, 2.000000000000251354 ) ) ;
#145 = DIRECTION ( 'NONE',  ( 1.000000000000000000, 0.0000000000000000000, 0.0000000000000000000 ) ) ;
#146 = VERTEX_POINT ( 'NONE', #115 ) ;
#147 = PERSON_AND_ORGANIZATION ( #227, #296 ) ;
#148 = AXIS2_PLACEMENT_3D ( 'NONE', #332, #18, #14 ) ;
#149 = COORDINATED_UNIVERSAL_TIME_OFFSET ( 5, 0, .BEHIND. ) ;
#150 = DIRECTION ( 'NONE',  ( 1.000000000000000000, 0.0000000000000000000, 0.0000000000000000000 ) ) ;
#151 = SECURITY_CLASSIFICATION_LEVEL ( 'unclassified' ) ;
#152 = EDGE_LOOP ( 'NONE', ( #25 ) ) ;
#153 = DIRECTION ( 'NONE',  ( 0.0000000000000000000, 0.0000000000000000000, 1.000000000000000000 ) ) ;
#154 = ORIENTED_EDGE ( 'NONE', *, *, #111, .T. ) ;
#155 = ORIENTED_EDGE ( 'NONE', *, *, #78, .T. ) ;
#156 = AXIS2_PLACEMENT_3D ( 'NONE', #46, #372, #84 ) ;
#157 = ORIENTED_EDGE ( 'NONE', *, *, #138, .F. ) ;
#158 = ORIENTED_EDGE ( 'NONE', *, *, #57, .F. ) ;
#159 = EDGE_LOOP ( 'NONE', ( #353 ) ) ;
#160 = DIRECTION ( 'NONE',  ( -0.0000000000000000000, -0.0000000000000000000, -1.000000000000000000 ) ) ;
#161 = DIRECTION ( 'NONE',  ( 1.000000000000000000, 0.0000000000000000000, -0.0000000000000000000 ) ) ;
#162 = DIRECTION ( 'NONE',  ( 0.0000000000000000000, 0.0000000000000000000, 1.000000000000000000 ) ) ;
#163 = DIRECTION ( 'NONE',  ( 1.000000000000000000, 0.0000000000000000000, 0.0000000000000000000 ) ) ;
#164 = PLANE ( 'NONE',  #89 ) ;
#165 = AXIS2_PLACEMENT_3D ( 'NONE', #194, #83, #51 ) ;
#166 = AXIS2_PLACEMENT_3D ( 'NONE', #65, #179, #362 ) ;
#167 = LOCAL_TIME ( 17, 34, 2.000000000000000000, #149 ) ;
#168 = ORIENTED_EDGE ( 'NONE', *, *, #321, .F. ) ;
#169 =( LENGTH_UNIT ( ) NAMED_UNIT ( * ) SI_UNIT ( $, .METRE. ) );
#170 = ADVANCED_FACE ( 'NONE', ( #290, #255 ), #19, .T. ) ;
#171 = CARTESIAN_POINT ( 'NONE',  ( 0.4800000000000080869, 0.0000000000000000000, -7.922359181626363531E-15 ) ) ;
#172 = LENGTH_MEASURE_WITH_UNIT ( LENGTH_MEASURE( 0.02539999999999999897 ), #169 );
#173 = CONICAL_SURFACE ( 'NONE', #348, 0.5000000000000049960, 0.7853981633972999532 ) ;
#174 = EDGE_LOOP ( 'NONE', ( #195 ) ) ;
#175 =( NAMED_UNIT ( * ) PLANE_ANGLE_UNIT ( ) SI_UNIT ( $, .RADIAN. ) );
#176 = PRODUCT ( 'SCE-WMS2SS', 'SCE-WMS2SS', '', ( #312 ) ) ;
#177 = ADVANCED_FACE ( 'NONE', ( #131, #108 ), #224, .T. ) ;
#178 = CC_DESIGN_PERSON_AND_ORGANIZATION_ASSIGNMENT ( #41, #216, ( #133 ) ) ;
#179 = DIRECTION ( 'NONE',  ( 0.0000000000000000000, 0.0000000000000000000, -1.000000000000000000 ) ) ;
#180 = CIRCLE ( 'NONE', #66, 0.2500000000000000000 ) ;
#181 = APPROVAL_DATE_TIME ( #208, #82 ) ;
#182 = PLANE ( 'NONE',  #48 ) ;
#183 = CALENDAR_DATE ( 2021, 9, 2 ) ;
#184 = FACE_OUTER_BOUND ( 'NONE', #121, .T. ) ;
#185 = CYLINDRICAL_SURFACE ( 'NONE', #246, 0.4060000000000000275 ) ;
#186 = AXIS2_PLACEMENT_3D ( 'NONE', #90, #202, #145 ) ;
#187 = DIRECTION ( 'NONE',  ( -1.000000000000000000, 0.0000000000000000000, 0.0000000000000000000 ) ) ;
#188 = ORIENTED_EDGE ( 'NONE', *, *, #237, .F. ) ;
#189 = FACE_OUTER_BOUND ( 'NONE', #27, .T. ) ;
#190 = ADVANCED_FACE ( 'NONE', ( #317, #343 ), #226, .F. ) ;
#191 = DIRECTION ( 'NONE',  ( 0.0000000000000000000, 0.0000000000000000000, 1.000000000000000000 ) ) ;
#192 = DIRECTION ( 'NONE',  ( 1.000000000000000000, 0.0000000000000000000, 0.0000000000000000000 ) ) ;
#193 = AXIS2_PLACEMENT_3D ( 'NONE', #328, #281, #8 ) ;
#194 = CARTESIAN_POINT ( 'NONE',  ( 0.0000000000000000000, 0.0000000000000000000, 0.0000000000000000000 ) ) ;
#195 = ORIENTED_EDGE ( 'NONE', *, *, #33, .F. ) ;
#196 = ORIENTED_EDGE ( 'NONE', *, *, #345, .F. ) ;
#197 = CYLINDRICAL_SURFACE ( 'NONE', #85, 0.1774999999999999911 ) ;
#198 = DIRECTION ( 'NONE',  ( 1.000000000000000000, 0.0000000000000000000, 0.0000000000000000000 ) ) ;
#199 = AXIS2_PLACEMENT_3D ( 'NONE', #40, #153, #150 ) ;
#200 = LOCAL_TIME ( 17, 34, 2.000000000000000000, #64 ) ;
#201 = EDGE_LOOP ( 'NONE', ( #155 ) ) ;
#202 = DIRECTION ( 'NONE',  ( -0.0000000000000000000, -0.0000000000000000000, -1.000000000000000000 ) ) ;
#203 = VERTEX_POINT ( 'NONE', #114 ) ;
#204 = CIRCLE ( 'NONE', #166, 0.4800000000002516143 ) ;
#205 = EDGE_CURVE ( 'NONE', #87, #87, #254, .T. ) ;
#206 = VERTEX_POINT ( 'NONE', #62 ) ;
#207 = DESIGN_CONTEXT ( 'detailed design', #209, 'design' ) ;
#208 = DATE_AND_TIME ( #183, #297 ) ;
#209 = APPLICATION_CONTEXT ( 'configuration controlled 3d designs of mechanical parts and assemblies' ) ;
#210 = EDGE_LOOP ( 'NONE', ( #283 ) ) ;
#211 = ORIENTED_EDGE ( 'NONE', *, *, #375, .T. ) ;
#212 = DATE_TIME_ROLE ( 'classification_date' ) ;
#213 = CYLINDRICAL_SURFACE ( 'NONE', #80, 0.1774999999999999911 ) ;
#214 = EDGE_CURVE ( 'NONE', #28, #28, #116, .T. ) ;
#215 = AXIS2_PLACEMENT_3D ( 'NONE', #330, #236, #198 ) ;
#216 = PERSON_AND_ORGANIZATION_ROLE ( 'design_supplier' ) ;
#217 = DIRECTION ( 'NONE',  ( 1.000000000000000000, 0.0000000000000000000, 0.0000000000000000000 ) ) ;
#218 = PERSON_AND_ORGANIZATION_ROLE ( 'classification_officer' ) ;
#219 = EDGE_LOOP ( 'NONE', ( #286 ) ) ;
#220 = DIRECTION ( 'NONE',  ( 0.0000000000000000000, 0.0000000000000000000, 1.000000000000000000 ) ) ;
#221 = ADVANCED_FACE ( 'NONE', ( #322, #189 ), #197, .F. ) ;
#222 = FACE_BOUND ( 'NONE', #137, .T. ) ;
#223 = CC_DESIGN_SECURITY_CLASSIFICATION ( #91, ( #133 ) ) ;
#224 = PLANE ( 'NONE',  #10 ) ;
#225 = ORIENTED_EDGE ( 'NONE', *, *, #205, .T. ) ;
#226 = PLANE ( 'NONE',  #54 ) ;
#227 = PERSON ( 'UNSPECIFIED', 'UNSPECIFIED', 'UNSPECIFIED', ('UNSPECIFIED'), ('UNSPECIFIED'), ('UNSPECIFIED') ) ;
#228 = PRODUCT_DEFINITION ( 'UNKNOWN', '', #133, #207 ) ;
#229 = FACE_BOUND ( 'NONE', #260, .T. ) ;
#230 = CIRCLE ( 'NONE', #139, 0.4060000000000000275 ) ;
#231 = DIRECTION ( 'NONE',  ( 0.0000000000000000000, 0.0000000000000000000, 1.000000000000000000 ) ) ;
#232 = EDGE_LOOP ( 'NONE', ( #360 ) ) ;
#233 =( CONVERSION_BASED_UNIT ( 'INCH', #172 ) LENGTH_UNIT ( ) NAMED_UNIT ( #50 ) );
#234 = CIRCLE ( 'NONE', #301, 0.1774999999999999911 ) ;
#235 = PLANE ( 'NONE',  #9 ) ;
#236 = DIRECTION ( 'NONE',  ( -0.0000000000000000000, -0.0000000000000000000, -1.000000000000000000 ) ) ;
#237 = EDGE_CURVE ( 'NONE', #352, #352, #22, .T. ) ;
#238 = CARTESIAN_POINT ( 'NONE',  ( 0.0000000000000000000, 0.0000000000000000000, -0.06199999999999999956 ) ) ;
#239 =( GEOMETRIC_REPRESENTATION_CONTEXT ( 3 ) GLOBAL_UNCERTAINTY_ASSIGNED_CONTEXT ( ( #86 ) ) GLOBAL_UNIT_ASSIGNED_CONTEXT ( ( #233, #175, #349 ) ) REPRESENTATION_CONTEXT ( 'NONE', 'WORKASPACE' ) );
#240 = APPLICATION_PROTOCOL_DEFINITION ( 'international standard', 'config_control_design', 1994, #209 ) ;
#241 = DIRECTION ( 'NONE',  ( 0.0000000000000000000, 0.0000000000000000000, 1.000000000000000000 ) ) ;
#242 = ADVANCED_FACE ( 'NONE', ( #262, #320 ), #173, .T. ) ;
#243 = APPROVAL_ROLE ( '' ) ;
#244 = FACE_OUTER_BOUND ( 'NONE', #88, .T. ) ;
#245 = CARTESIAN_POINT ( 'NONE',  ( 0.0000000000000000000, 0.0000000000000000000, -0.06199999999999999956 ) ) ;
#246 = AXIS2_PLACEMENT_3D ( 'NONE', #93, #123, #75 ) ;
#247 = PERSON_AND_ORGANIZATION_ROLE ( 'creator' ) ;
#248 = ORIENTED_EDGE ( 'NONE', *, *, #57, .T. ) ;
#249 = PERSON_AND_ORGANIZATION_ROLE ( 'creator' ) ;
#250 = CARTESIAN_POINT ( 'NONE',  ( 0.0000000000000000000, 0.0000000000000000000, 2.000000000000000000 ) ) ;
#251 = ADVANCED_FACE ( 'NONE', ( #344, #24 ), #287, .F. ) ;
#252 = CC_DESIGN_PERSON_AND_ORGANIZATION_ASSIGNMENT ( #95, #249, ( #133 ) ) ;
#253 = DIRECTION ( 'NONE',  ( 0.0000000000000000000, 0.0000000000000000000, 1.000000000000000000 ) ) ;
#254 = CIRCLE ( 'NONE', #43, 0.1774999999999999911 ) ;
#255 = FACE_OUTER_BOUND ( 'NONE', #59, .T. ) ;
#256 = EDGE_LOOP ( 'NONE', ( #225 ) ) ;
#257 = CARTESIAN_POINT ( 'NONE',  ( 0.0000000000000000000, 0.0000000000000000000, 2.000000000000000000 ) ) ;
#258 = EDGE_LOOP ( 'NONE', ( #157 ) ) ;
#259 = DIRECTION ( 'NONE',  ( 1.000000000000000000, 0.0000000000000000000, 0.0000000000000000000 ) ) ;
#260 = EDGE_LOOP ( 'NONE', ( #282 ) ) ;
#261 = ORIENTED_EDGE ( 'NONE', *, *, #138, .T. ) ;
#262 = FACE_OUTER_BOUND ( 'NONE', #304, .T. ) ;
#263 = CONICAL_SURFACE ( 'NONE', #370, 0.5000000000002484679, 0.7853981633972997312 ) ;
#264 = CC_DESIGN_APPROVAL ( #58, ( #228 ) ) ;
#265 = EDGE_LOOP ( 'NONE', ( #285 ) ) ;
#266 = CARTESIAN_POINT ( 'NONE',  ( 0.4060000000000000275, 0.0000000000000000000, 0.0000000000000000000 ) ) ;
#267 = ADVANCED_FACE ( 'NONE', ( #222, #376 ), #110, .F. ) ;
#268 = VERTEX_POINT ( 'NONE', #351 ) ;
#269 = EDGE_LOOP ( 'NONE', ( #279 ) ) ;
#270 = EDGE_LOOP ( 'NONE', ( #158 ) ) ;
#271 = CARTESIAN_POINT ( 'NONE',  ( 0.4060000000000000275, 0.0000000000000000000, -0.06199999999999999956 ) ) ;
#272 = VERTEX_POINT ( 'NONE', #1 ) ;
#273 = APPROVAL_STATUS ( 'not_yet_approved' ) ;
#274 = CLOSED_SHELL ( 'NONE', ( #356, #221, #6, #177 ) ) ;
#275 = PERSON_AND_ORGANIZATION ( #227, #296 ) ;
#276 = EDGE_LOOP ( 'NONE', ( #291 ) ) ;
#277 = CARTESIAN_POINT ( 'NONE',  ( 0.0000000000000000000, 0.0000000000000000000, 0.0000000000000000000 ) ) ;
#278 = PERSON_AND_ORGANIZATION ( #227, #296 ) ;
#279 = ORIENTED_EDGE ( 'NONE', *, *, #345, .T. ) ;
#280 = CIRCLE ( 'NONE', #16, 0.4060000000000000275 ) ;
#281 = DIRECTION ( 'NONE',  ( 0.0000000000000000000, 0.0000000000000000000, 1.000000000000000000 ) ) ;
#282 = ORIENTED_EDGE ( 'NONE', *, *, #311, .T. ) ;
#283 = ORIENTED_EDGE ( 'NONE', *, *, #321, .T. ) ;
#284 = FACE_BOUND ( 'NONE', #219, .T. ) ;
#285 = ORIENTED_EDGE ( 'NONE', *, *, #111, .F. ) ;
#286 = ORIENTED_EDGE ( 'NONE', *, *, #74, .T. ) ;
#287 = CYLINDRICAL_SURFACE ( 'NONE', #329, 0.2500000000000000000 ) ;
#288 = CIRCLE ( 'NONE', #156, 0.5000000000000000000 ) ;
#289 = APPROVAL_PERSON_ORGANIZATION ( #69, #338, #302 ) ;
#290 = FACE_OUTER_BOUND ( 'NONE', #210, .T. ) ;
#291 = ORIENTED_EDGE ( 'NONE', *, *, #214, .T. ) ;
#292 = DIRECTION ( 'NONE',  ( 0.0000000000000000000, 0.0000000000000000000, 1.000000000000000000 ) ) ;
#293 = CARTESIAN_POINT ( 'NONE',  ( 0.0000000000000000000, 0.0000000000000000000, 2.000000000000000000 ) ) ;
#294 = ORIENTED_EDGE ( 'NONE', *, *, #74, .F. ) ;
#295 = VERTEX_POINT ( 'NONE', #325 ) ;
#296 = ORGANIZATION ( 'UNSPECIFIED', 'UNSPECIFIED', '' ) ;
#297 = LOCAL_TIME ( 17, 34, 2.000000000000000000, #92 ) ;
#298 = VERTEX_POINT ( 'NONE', #347 ) ;
#299 = VERTEX_POINT ( 'NONE', #271 ) ;
#300 = ADVANCED_FACE ( 'NONE', ( #229, #81 ), #164, .T. ) ;
#301 = AXIS2_PLACEMENT_3D ( 'NONE', #44, #333, #337 ) ;
#302 = APPROVAL_ROLE ( '' ) ;
#303 = APPROVAL_DATE_TIME ( #364, #58 ) ;
#304 = EDGE_LOOP ( 'NONE', ( #168 ) ) ;
#305 = AXIS2_PLACEMENT_3D ( 'NONE', #77, #79, #192 ) ;
#306 = APPROVAL_PERSON_ORGANIZATION ( #275, #82, #100 ) ;
#307 = CC_DESIGN_DATE_AND_TIME_ASSIGNMENT ( #309, #11, ( #228 ) ) ;
#308 = FACE_OUTER_BOUND ( 'NONE', #159, .T. ) ;
#309 = DATE_AND_TIME ( #35, #318 ) ;
#310 = FACE_OUTER_BOUND ( 'NONE', #102, .T. ) ;
#311 = EDGE_CURVE ( 'NONE', #298, #298, #180, .T. ) ;
#312 = MECHANICAL_CONTEXT ( 'NONE', #130, 'mechanical' ) ;
#313 = EDGE_LOOP ( 'NONE', ( #29 ) ) ;
#314 = AXIS2_PLACEMENT_3D ( 'NONE', #15, #241, #126 ) ;
#315 = DIRECTION ( 'NONE',  ( 1.000000000000000000, 0.0000000000000000000, 0.0000000000000000000 ) ) ;
#316 = DIRECTION ( 'NONE',  ( 1.000000000000000000, 0.0000000000000000000, 0.0000000000000000000 ) ) ;
#317 = FACE_BOUND ( 'NONE', #152, .T. ) ;
#318 = LOCAL_TIME ( 17, 34, 2.000000000000000000, #361 ) ;
#319 = DIRECTION ( 'NONE',  ( 0.0000000000000000000, 0.0000000000000000000, 1.000000000000000000 ) ) ;
#320 = FACE_BOUND ( 'NONE', #122, .T. ) ;
#321 = EDGE_CURVE ( 'NONE', #203, #203, #288, .T. ) ;
#322 = FACE_OUTER_BOUND ( 'NONE', #313, .T. ) ;
#323 = MANIFOLD_SOLID_BREP ( 'SEALING-WASHER-1-solid1', #324 ) ;
#324 = CLOSED_SHELL ( 'NONE', ( #190, #119, #105, #143 ) ) ;
#325 = CARTESIAN_POINT ( 'NONE',  ( 0.4060000000000000275, 0.0000000000000000000, 2.061999999999999833 ) ) ;
#326 = ORIENTED_EDGE ( 'NONE', *, *, #237, .T. ) ;
#327 = CARTESIAN_POINT ( 'NONE',  ( 0.1774999999999999911, 0.0000000000000000000, 2.061999999999999833 ) ) ;
#328 = CARTESIAN_POINT ( 'NONE',  ( 0.0000000000000000000, 0.0000000000000000000, 0.0000000000000000000 ) ) ;
#329 = AXIS2_PLACEMENT_3D ( 'NONE', #26, #135, #259 ) ;
#330 = CARTESIAN_POINT ( 'NONE',  ( 0.0000000000000000000, 0.0000000000000000000, 2.061999999999999833 ) ) ;
#331 = APPROVAL_STATUS ( 'not_yet_approved' ) ;
#332 = CARTESIAN_POINT ( 'NONE',  ( 0.0000000000000000000, 0.0000000000000000000, 1.979999999999999982 ) ) ;
#333 = DIRECTION ( 'NONE',  ( -0.0000000000000000000, -0.0000000000000000000, -1.000000000000000000 ) ) ;
#334 = PERSON_AND_ORGANIZATION ( #227, #296 ) ;
#335 = DIRECTION ( 'NONE',  ( 1.000000000000000000, 0.0000000000000000000, 0.0000000000000000000 ) ) ;
#336 = DATE_AND_TIME ( #357, #167 ) ;
#337 = DIRECTION ( 'NONE',  ( 1.000000000000000000, 0.0000000000000000000, 0.0000000000000000000 ) ) ;
#338 = APPROVAL ( #273, 'UNSPECIFIED' ) ;
#339 = CARTESIAN_POINT ( 'NONE',  ( 0.0000000000000000000, 0.0000000000000000000, 2.061999999999999833 ) ) ;
#340 = APPROVAL_PERSON_ORGANIZATION ( #278, #58, #243 ) ;
#341 = DIRECTION ( 'NONE',  ( 0.0000000000000000000, 0.0000000000000000000, 1.000000000000000000 ) ) ;
#342 = CARTESIAN_POINT ( 'NONE',  ( 0.0000000000000000000, 0.0000000000000000000, 0.0000000000000000000 ) ) ;
#343 = FACE_OUTER_BOUND ( 'NONE', #265, .T. ) ;
#344 = FACE_OUTER_BOUND ( 'NONE', #232, .T. ) ;
#345 = EDGE_CURVE ( 'NONE', #206, #206, #113, .T. ) ;
#346 = DIRECTION ( 'NONE',  ( 1.000000000000000000, 0.0000000000000000000, 0.0000000000000000000 ) ) ;
#347 = CARTESIAN_POINT ( 'NONE',  ( 0.2500000000000000000, 0.0000000000000000000, 2.000000000000000000 ) ) ;
#348 = AXIS2_PLACEMENT_3D ( 'NONE', #47, #319, #163 ) ;
#349 =( NAMED_UNIT ( * ) SI_UNIT ( $, .STERADIAN. ) SOLID_ANGLE_UNIT ( ) );
#350 = EDGE_LOOP ( 'NONE', ( #42 ) ) ;
#351 = CARTESIAN_POINT ( 'NONE',  ( 0.4060000000000000275, 0.0000000000000000000, 2.000000000000000000 ) ) ;
#352 = VERTEX_POINT ( 'NONE', #171 ) ;
#353 = ORIENTED_EDGE ( 'NONE', *, *, #33, .T. ) ;
#354 = CARTESIAN_POINT ( 'NONE',  ( 0.1774999999999999911, 0.0000000000000000000, 2.000000000000000000 ) ) ;
#355 = AXIS2_PLACEMENT_3D ( 'NONE', #245, #220, #335 ) ;
#356 = ADVANCED_FACE ( 'NONE', ( #141, #60 ), #235, .F. ) ;
#357 = CALENDAR_DATE ( 2021, 9, 2 ) ;
#358 = CARTESIAN_POINT ( 'NONE',  ( 0.0000000000000000000, 0.0000000000000000000, 1.980000000000248450 ) ) ;
#359 = SHAPE_DEFINITION_REPRESENTATION ( #13, #107 ) ;
#360 = ORIENTED_EDGE ( 'NONE', *, *, #311, .F. ) ;
#361 = COORDINATED_UNIVERSAL_TIME_OFFSET ( 5, 0, .BEHIND. ) ;
#362 = DIRECTION ( 'NONE',  ( -1.000000000000000000, 0.0000000000000000000, 0.0000000000000000000 ) ) ;
#363 = CC_DESIGN_PERSON_AND_ORGANIZATION_ASSIGNMENT ( #334, #120, ( #176 ) ) ;
#364 = DATE_AND_TIME ( #34, #200 ) ;
#365 = DIRECTION ( 'NONE',  ( -0.0000000000000000000, -0.0000000000000000000, -1.000000000000000000 ) ) ;
#366 = APPROVAL_STATUS ( 'not_yet_approved' ) ;
#367 = DIRECTION ( 'NONE',  ( 1.000000000000000000, 0.0000000000000000000, 0.0000000000000000000 ) ) ;
#368 = PRODUCT_RELATED_PRODUCT_CATEGORY ( 'detail', '', ( #176 ) ) ;
#369 = DIRECTION ( 'NONE',  ( 1.000000000000000000, 0.0000000000000000000, -0.0000000000000000000 ) ) ;
#370 = AXIS2_PLACEMENT_3D ( 'NONE', #358, #118, #187 ) ;
#371 = CC_DESIGN_APPROVAL ( #82, ( #91 ) ) ;
#372 = DIRECTION ( 'NONE',  ( 0.0000000000000000000, 0.0000000000000000000, 1.000000000000000000 ) ) ;
#373 = DIRECTION ( 'NONE',  ( -0.0000000000000000000, -0.0000000000000000000, -1.000000000000000000 ) ) ;
#374 = CARTESIAN_POINT ( 'NONE',  ( 0.0000000000000000000, 0.0000000000000000000, 0.0000000000000000000 ) ) ;
#375 = EDGE_CURVE ( 'NONE', #56, #56, #2, .T. ) ;
#376 = FACE_OUTER_BOUND ( 'NONE', #4, .T. ) ;
ENDSEC;
END-ISO-10303-21;
