ISO-10303-21;
HEADER;
FILE_DESCRIPTION (( 'STEP AP203' ),
    '1' );
FILE_NAME ('SCE-WMS3SS.step',
    '2021-02-09T22:34:05',
    ( 'ADC123' ),
    ( 'Microsoft' ),
    'SwSTEP 2.0',
    'SolidWorks 2019',
    '' );
FILE_SCHEMA (( 'CONFIG_CONTROL_DESIGN' ));
ENDSEC;

DATA;
#1 = PERSON_AND_ORGANIZATION_ROLE ( 'design_owner' ) ;
#2 = FACE_OUTER_BOUND ( 'NONE', #35, .T. ) ;
#3 = EDGE_LOOP ( 'NONE', ( #351 ) ) ;
#4 = PRODUCT ( 'SCE-WMS3SS', 'SCE-WMS3SS', '', ( #348 ) ) ;
#5 = LOCAL_TIME ( 17, 34, 5.000000000000000000, #197 ) ;
#6 = EDGE_LOOP ( 'NONE', ( #125 ) ) ;
#7 = AXIS2_PLACEMENT_3D ( 'NONE', #142, #284, #138 ) ;
#8 = EDGE_LOOP ( 'NONE', ( #366 ) ) ;
#9 = AXIS2_PLACEMENT_3D ( 'NONE', #213, #215, #104 ) ;
#10 = ORIENTED_EDGE ( 'NONE', *, *, #34, .T. ) ;
#11 = DIRECTION ( 'NONE',  ( 0.0000000000000000000, 0.0000000000000000000, -1.000000000000000000 ) ) ;
#12 = EDGE_CURVE ( 'NONE', #48, #48, #106, .T. ) ;
#13 = SHAPE_DEFINITION_REPRESENTATION ( #91, #65 ) ;
#14 = PLANE ( 'NONE',  #69 ) ;
#15 = DIRECTION ( 'NONE',  ( 1.000000000000000000, 0.0000000000000000000, 0.0000000000000000000 ) ) ;
#16 = CIRCLE ( 'NONE', #140, 0.1774999999999999911 ) ;
#17 = FACE_OUTER_BOUND ( 'NONE', #123, .T. ) ;
#18 = DIRECTION ( 'NONE',  ( 1.000000000000000000, 0.0000000000000000000, 0.0000000000000000000 ) ) ;
#19 = CC_DESIGN_PERSON_AND_ORGANIZATION_ASSIGNMENT ( #316, #260, ( #200 ) ) ;
#20 = VERTEX_POINT ( 'NONE', #54 ) ;
#21 = EDGE_CURVE ( 'NONE', #78, #78, #120, .T. ) ;
#22 = FACE_OUTER_BOUND ( 'NONE', #157, .T. ) ;
#23 = AXIS2_PLACEMENT_3D ( 'NONE', #147, #264, #202 ) ;
#24 = ADVANCED_FACE ( 'NONE', ( #154, #179 ), #209, .T. ) ;
#25 = PRODUCT_RELATED_PRODUCT_CATEGORY ( 'detail', '', ( #4 ) ) ;
#26 = CARTESIAN_POINT ( 'NONE',  ( 0.0000000000000000000, 0.0000000000000000000, -0.06199999999999999956 ) ) ;
#27 = PERSON_AND_ORGANIZATION_ROLE ( 'design_supplier' ) ;
#28 = LENGTH_MEASURE_WITH_UNIT ( LENGTH_MEASURE( 0.02539999999999999897 ), #177 );
#29 = CARTESIAN_POINT ( 'NONE',  ( 0.1774999999999999911, 0.0000000000000000000, 0.0000000000000000000 ) ) ;
#30 = DIRECTION ( 'NONE',  ( -0.0000000000000000000, -0.0000000000000000000, -1.000000000000000000 ) ) ;
#31 = ORIENTED_EDGE ( 'NONE', *, *, #333, .F. ) ;
#32 = CARTESIAN_POINT ( 'NONE',  ( 0.0000000000000000000, 0.0000000000000000000, 2.999999999999999556 ) ) ;
#33 = AXIS2_PLACEMENT_3D ( 'NONE', #44, #249, #257 ) ;
#34 = EDGE_CURVE ( 'NONE', #168, #168, #37, .T. ) ;
#35 = EDGE_LOOP ( 'NONE', ( #269 ) ) ;
#36 = ORIENTED_EDGE ( 'NONE', *, *, #34, .F. ) ;
#37 = CIRCLE ( 'NONE', #235, 0.4060000000000000275 ) ;
#38 = FACE_OUTER_BOUND ( 'NONE', #59, .T. ) ;
#39 = DATE_AND_TIME ( #50, #62 ) ;
#40 = CC_DESIGN_APPROVAL ( #232, ( #166 ) ) ;
#41 = FACE_OUTER_BOUND ( 'NONE', #185, .T. ) ;
#42 = PERSON_AND_ORGANIZATION_ROLE ( 'classification_officer' ) ;
#43 = DIRECTION ( 'NONE',  ( 0.0000000000000000000, 0.0000000000000000000, 1.000000000000000000 ) ) ;
#44 = CARTESIAN_POINT ( 'NONE',  ( 0.0000000000000000000, 0.0000000000000000000, 0.0000000000000000000 ) ) ;
#45 = DIRECTION ( 'NONE',  ( -0.0000000000000000000, -0.0000000000000000000, -1.000000000000000000 ) ) ;
#46 = ADVANCED_FACE ( 'NONE', ( #103, #293 ), #212, .T. ) ;
#47 = CARTESIAN_POINT ( 'NONE',  ( 0.4799999999999909894, 0.0000000000000000000, 9.015098379092068029E-15 ) ) ;
#48 = VERTEX_POINT ( 'NONE', #315 ) ;
#49 = DESIGN_CONTEXT ( 'detailed design', #243, 'design' ) ;
#50 = CALENDAR_DATE ( 2021, 9, 2 ) ;
#51 = CARTESIAN_POINT ( 'NONE',  ( 0.0000000000000000000, 0.0000000000000000000, -0.06199999999999999956 ) ) ;
#52 = DIMENSIONAL_EXPONENTS ( 1.000000000000000000, 0.0000000000000000000, 0.0000000000000000000, 0.0000000000000000000, 0.0000000000000000000, 0.0000000000000000000, 0.0000000000000000000 ) ;
#53 = AXIS2_PLACEMENT_3D ( 'NONE', #26, #280, #112 ) ;
#54 = CARTESIAN_POINT ( 'NONE',  ( 0.4060000000000000275, 0.0000000000000000000, 0.0000000000000000000 ) ) ;
#55 = AXIS2_PLACEMENT_3D ( 'NONE', #312, #118, #342 ) ;
#56 = VERTEX_POINT ( 'NONE', #178 ) ;
#57 = EDGE_LOOP ( 'NONE', ( #128 ) ) ;
#58 = VERTEX_POINT ( 'NONE', #262 ) ;
#59 = EDGE_LOOP ( 'NONE', ( #218 ) ) ;
#60 = AXIS2_PLACEMENT_3D ( 'NONE', #271, #11, #132 ) ;
#61 = CC_DESIGN_PERSON_AND_ORGANIZATION_ASSIGNMENT ( #203, #27, ( #166 ) ) ;
#62 = LOCAL_TIME ( 17, 34, 5.000000000000000000, #75 ) ;
#63 = ORIENTED_EDGE ( 'NONE', *, *, #175, .F. ) ;
#64 =( NAMED_UNIT ( * ) SI_UNIT ( $, .STERADIAN. ) SOLID_ANGLE_UNIT ( ) );
#65 = ADVANCED_BREP_SHAPE_REPRESENTATION ( 'SCE-WMS3SS', ( #76, #335, #322, #23 ), #279 ) ;
#66 = DIRECTION ( 'NONE',  ( 0.0000000000000000000, 0.0000000000000000000, 1.000000000000000000 ) ) ;
#67 = DIRECTION ( 'NONE',  ( 1.000000000000000000, 0.0000000000000000000, 0.0000000000000000000 ) ) ;
#68 = CC_DESIGN_PERSON_AND_ORGANIZATION_ASSIGNMENT ( #346, #42, ( #352 ) ) ;
#69 = AXIS2_PLACEMENT_3D ( 'NONE', #307, #43, #74 ) ;
#70 = CARTESIAN_POINT ( 'NONE',  ( 0.0000000000000000000, 0.0000000000000000000, 2.979999999999999982 ) ) ;
#71 = DIRECTION ( 'NONE',  ( 1.000000000000000000, 0.0000000000000000000, 0.0000000000000000000 ) ) ;
#72 = FACE_OUTER_BOUND ( 'NONE', #298, .T. ) ;
#73 = CIRCLE ( 'NONE', #304, 0.1774999999999999911 ) ;
#74 = DIRECTION ( 'NONE',  ( 1.000000000000000000, 0.0000000000000000000, -0.0000000000000000000 ) ) ;
#75 = COORDINATED_UNIVERSAL_TIME_OFFSET ( 5, 0, .BEHIND. ) ;
#76 = MANIFOLD_SOLID_BREP ( 'OFFSET-1-solid1', #221 ) ;
#77 = CYLINDRICAL_SURFACE ( 'NONE', #9, 0.2500000000000000000 ) ;
#78 = VERTEX_POINT ( 'NONE', #47 ) ;
#79 = DIRECTION ( 'NONE',  ( 0.0000000000000000000, 0.0000000000000000000, 1.000000000000000000 ) ) ;
#80 = EDGE_CURVE ( 'NONE', #20, #20, #204, .T. ) ;
#81 = CYLINDRICAL_SURFACE ( 'NONE', #55, 0.5000000000000000000 ) ;
#82 = AXIS2_PLACEMENT_3D ( 'NONE', #274, #105, #275 ) ;
#83 = CARTESIAN_POINT ( 'NONE',  ( 0.0000000000000000000, 0.0000000000000000000, 2.999999999999999556 ) ) ;
#84 = FACE_OUTER_BOUND ( 'NONE', #267, .T. ) ;
#85 = APPROVAL_DATE_TIME ( #145, #321 ) ;
#86 = FACE_OUTER_BOUND ( 'NONE', #153, .T. ) ;
#87 = CARTESIAN_POINT ( 'NONE',  ( 0.5000000000000000000, 0.0000000000000000000, 0.02000000000000000042 ) ) ;
#88 = AXIS2_PLACEMENT_3D ( 'NONE', #373, #222, #225 ) ;
#89 = CALENDAR_DATE ( 2021, 9, 2 ) ;
#90 =( CONVERSION_BASED_UNIT ( 'INCH', #28 ) LENGTH_UNIT ( ) NAMED_UNIT ( #52 ) );
#91 = PRODUCT_DEFINITION_SHAPE ( 'NONE', 'NONE',  #200 ) ;
#92 = PERSON_AND_ORGANIZATION ( #181, #372 ) ;
#93 = DIRECTION ( 'NONE',  ( 0.0000000000000000000, 0.0000000000000000000, 1.000000000000000000 ) ) ;
#94 = AXIS2_PLACEMENT_3D ( 'NONE', #133, #357, #163 ) ;
#95 = CARTESIAN_POINT ( 'NONE',  ( 0.1774999999999999911, 0.0000000000000000000, -0.06199999999999999956 ) ) ;
#96 = ADVANCED_FACE ( 'NONE', ( #265, #2 ), #14, .T. ) ;
#97 = APPROVAL_PERSON_ORGANIZATION ( #199, #296, #273 ) ;
#98 = EDGE_LOOP ( 'NONE', ( #180 ) ) ;
#99 = AXIS2_PLACEMENT_3D ( 'NONE', #51, #340, #167 ) ;
#100 = CC_DESIGN_PERSON_AND_ORGANIZATION_ASSIGNMENT ( #226, #117, ( #166 ) ) ;
#101 = DIRECTION ( 'NONE',  ( -0.0000000000000000000, -0.0000000000000000000, -1.000000000000000000 ) ) ;
#102 = ORIENTED_EDGE ( 'NONE', *, *, #263, .F. ) ;
#103 = FACE_BOUND ( 'NONE', #208, .T. ) ;
#104 = DIRECTION ( 'NONE',  ( 1.000000000000000000, 0.0000000000000000000, 0.0000000000000000000 ) ) ;
#105 = DIRECTION ( 'NONE',  ( 0.0000000000000000000, 0.0000000000000000000, 1.000000000000000000 ) ) ;
#106 = CIRCLE ( 'NONE', #152, 0.5000000000000000000 ) ;
#107 = FACE_BOUND ( 'NONE', #302, .T. ) ;
#108 = FACE_BOUND ( 'NONE', #155, .T. ) ;
#109 = UNCERTAINTY_MEASURE_WITH_UNIT (LENGTH_MEASURE( 1.000000000000000082E-05 ), #90, 'distance_accuracy_value', 'NONE');
#110 = FACE_OUTER_BOUND ( 'NONE', #239, .T. ) ;
#111 = VERTEX_POINT ( 'NONE', #338 ) ;
#112 = DIRECTION ( 'NONE',  ( 1.000000000000000000, 0.0000000000000000000, 0.0000000000000000000 ) ) ;
#113 = CLOSED_SHELL ( 'NONE', ( #291, #368, #288, #46 ) ) ;
#114 = ADVANCED_FACE ( 'NONE', ( #187, #107 ), #253, .T. ) ;
#115 = APPROVAL_PERSON_ORGANIZATION ( #332, #232, #255 ) ;
#116 = FACE_BOUND ( 'NONE', #233, .T. ) ;
#117 = PERSON_AND_ORGANIZATION_ROLE ( 'creator' ) ;
#118 = DIRECTION ( 'NONE',  ( 0.0000000000000000000, 0.0000000000000000000, 1.000000000000000000 ) ) ;
#119 = CALENDAR_DATE ( 2021, 9, 2 ) ;
#120 = CIRCLE ( 'NONE', #156, 0.4799999999999909894 ) ;
#121 = EDGE_CURVE ( 'NONE', #139, #139, #290, .T. ) ;
#122 = APPLICATION_PROTOCOL_DEFINITION ( 'international standard', 'config_control_design', 1994, #243 ) ;
#123 = EDGE_LOOP ( 'NONE', ( #299 ) ) ;
#124 = CIRCLE ( 'NONE', #171, 0.2500000000000000000 ) ;
#125 = ORIENTED_EDGE ( 'NONE', *, *, #161, .F. ) ;
#126 = ADVANCED_FACE ( 'NONE', ( #303, #72 ), #337, .F. ) ;
#127 = ORIENTED_EDGE ( 'NONE', *, *, #12, .F. ) ;
#128 = ORIENTED_EDGE ( 'NONE', *, *, #175, .T. ) ;
#129 = DIRECTION ( 'NONE',  ( 1.000000000000000000, 0.0000000000000000000, 0.0000000000000000000 ) ) ;
#130 = AXIS2_PLACEMENT_3D ( 'NONE', #326, #30, #148 ) ;
#131 = ORIENTED_EDGE ( 'NONE', *, *, #256, .F. ) ;
#132 = DIRECTION ( 'NONE',  ( -1.000000000000000000, 0.0000000000000000000, 0.0000000000000000000 ) ) ;
#133 = CARTESIAN_POINT ( 'NONE',  ( 0.0000000000000000000, 0.0000000000000000000, 2.999999999999999556 ) ) ;
#134 = CLOSED_SHELL ( 'NONE', ( #126, #250, #24, #150 ) ) ;
#135 = CARTESIAN_POINT ( 'NONE',  ( 0.0000000000000000000, 0.0000000000000000000, 3.061999999999999833 ) ) ;
#136 = LOCAL_TIME ( 17, 34, 5.000000000000000000, #258 ) ;
#137 = FACE_OUTER_BOUND ( 'NONE', #210, .T. ) ;
#138 = DIRECTION ( 'NONE',  ( 1.000000000000000000, 0.0000000000000000000, -0.0000000000000000000 ) ) ;
#139 = VERTEX_POINT ( 'NONE', #254 ) ;
#140 = AXIS2_PLACEMENT_3D ( 'NONE', #172, #277, #369 ) ;
#141 = APPROVAL_PERSON_ORGANIZATION ( #92, #321, #207 ) ;
#142 = CARTESIAN_POINT ( 'NONE',  ( 0.0000000000000000000, 0.0000000000000000000, -0.06199999999999999956 ) ) ;
#143 = DATE_AND_TIME ( #314, #230 ) ;
#144 = COORDINATED_UNIVERSAL_TIME_OFFSET ( 5, 0, .BEHIND. ) ;
#145 = DATE_AND_TIME ( #345, #238 ) ;
#146 = EDGE_LOOP ( 'NONE', ( #347 ) ) ;
#147 = CARTESIAN_POINT ( 'NONE',  ( 0.0000000000000000000, 0.0000000000000000000, 0.0000000000000000000 ) ) ;
#148 = DIRECTION ( 'NONE',  ( 1.000000000000000000, 0.0000000000000000000, 0.0000000000000000000 ) ) ;
#149 = ADVANCED_FACE ( 'NONE', ( #248, #217 ), #365, .F. ) ;
#150 = ADVANCED_FACE ( 'NONE', ( #245, #110 ), #330, .T. ) ;
#151 = ORIENTED_EDGE ( 'NONE', *, *, #161, .T. ) ;
#152 = AXIS2_PLACEMENT_3D ( 'NONE', #70, #101, #71 ) ;
#153 = EDGE_LOOP ( 'NONE', ( #131 ) ) ;
#154 = FACE_OUTER_BOUND ( 'NONE', #57, .T. ) ;
#155 = EDGE_LOOP ( 'NONE', ( #353 ) ) ;
#156 = AXIS2_PLACEMENT_3D ( 'NONE', #242, #93, #67 ) ;
#157 = EDGE_LOOP ( 'NONE', ( #184 ) ) ;
#158 = CARTESIAN_POINT ( 'NONE',  ( 0.0000000000000000000, 0.0000000000000000000, 2.980000000000048388 ) ) ;
#159 = APPROVAL_STATUS ( 'not_yet_approved' ) ;
#160 = CYLINDRICAL_SURFACE ( 'NONE', #350, 0.1774999999999999911 ) ;
#161 = EDGE_CURVE ( 'NONE', #191, #191, #73, .T. ) ;
#162 = ORIENTED_EDGE ( 'NONE', *, *, #121, .F. ) ;
#163 = DIRECTION ( 'NONE',  ( 1.000000000000000000, 0.0000000000000000000, 0.0000000000000000000 ) ) ;
#164 = DIRECTION ( 'NONE',  ( 0.0000000000000000000, 0.0000000000000000000, 1.000000000000000000 ) ) ;
#165 = DIRECTION ( 'NONE',  ( 1.000000000000000000, 0.0000000000000000000, 0.0000000000000000000 ) ) ;
#166 = PRODUCT_DEFINITION_FORMATION_WITH_SPECIFIED_SOURCE ( 'ANY', '', #4, .NOT_KNOWN. ) ;
#167 = DIRECTION ( 'NONE',  ( 1.000000000000000000, 0.0000000000000000000, 0.0000000000000000000 ) ) ;
#168 = VERTEX_POINT ( 'NONE', #367 ) ;
#169 = COORDINATED_UNIVERSAL_TIME_OFFSET ( 5, 0, .BEHIND. ) ;
#170 = PLANE ( 'NONE',  #7 ) ;
#171 = AXIS2_PLACEMENT_3D ( 'NONE', #83, #224, #341 ) ;
#172 = CARTESIAN_POINT ( 'NONE',  ( 0.0000000000000000000, 0.0000000000000000000, 0.0000000000000000000 ) ) ;
#173 = APPROVAL_STATUS ( 'not_yet_approved' ) ;
#174 = AXIS2_PLACEMENT_3D ( 'NONE', #196, #313, #18 ) ;
#175 = EDGE_CURVE ( 'NONE', #111, #111, #246, .T. ) ;
#176 = ADVANCED_FACE ( 'NONE', ( #38, #41 ), #77, .F. ) ;
#177 =( LENGTH_UNIT ( ) NAMED_UNIT ( * ) SI_UNIT ( $, .METRE. ) );
#178 = CARTESIAN_POINT ( 'NONE',  ( 0.2500000000000000000, 0.0000000000000000000, 0.0000000000000000000 ) ) ;
#179 = FACE_OUTER_BOUND ( 'NONE', #375, .T. ) ;
#180 = ORIENTED_EDGE ( 'NONE', *, *, #121, .T. ) ;
#181 = PERSON ( 'UNSPECIFIED', 'UNSPECIFIED', 'UNSPECIFIED', ('UNSPECIFIED'), ('UNSPECIFIED'), ('UNSPECIFIED') ) ;
#182 = CARTESIAN_POINT ( 'NONE',  ( 0.0000000000000000000, 0.0000000000000000000, 2.999999999999999556 ) ) ;
#183 = EDGE_CURVE ( 'NONE', #193, #193, #362, .T. ) ;
#184 = ORIENTED_EDGE ( 'NONE', *, *, #12, .T. ) ;
#185 = EDGE_LOOP ( 'NONE', ( #323 ) ) ;
#186 = APPLICATION_CONTEXT ( 'configuration controlled 3d designs of mechanical parts and assemblies' ) ;
#187 = FACE_OUTER_BOUND ( 'NONE', #206, .T. ) ;
#188 = CARTESIAN_POINT ( 'NONE',  ( 0.0000000000000000000, 0.0000000000000000000, 3.061999999999999833 ) ) ;
#189 = CC_DESIGN_SECURITY_CLASSIFICATION ( #352, ( #166 ) ) ;
#190 = CARTESIAN_POINT ( 'NONE',  ( 0.0000000000000000000, 0.0000000000000000000, 2.999999999999999556 ) ) ;
#191 = VERTEX_POINT ( 'NONE', #308 ) ;
#192 = CARTESIAN_POINT ( 'NONE',  ( 0.0000000000000000000, 0.0000000000000000000, 3.061999999999999833 ) ) ;
#193 = VERTEX_POINT ( 'NONE', #259 ) ;
#194 = CC_DESIGN_DATE_AND_TIME_ASSIGNMENT ( #287, #228, ( #200 ) ) ;
#195 = FACE_OUTER_BOUND ( 'NONE', #237, .T. ) ;
#196 = CARTESIAN_POINT ( 'NONE',  ( 0.0000000000000000000, 0.0000000000000000000, 0.02000000000001191797 ) ) ;
#197 = COORDINATED_UNIVERSAL_TIME_OFFSET ( 5, 0, .BEHIND. ) ;
#198 = FACE_OUTER_BOUND ( 'NONE', #8, .T. ) ;
#199 = PERSON_AND_ORGANIZATION ( #181, #372 ) ;
#200 = PRODUCT_DEFINITION ( 'UNKNOWN', '', #166, #49 ) ;
#201 = CIRCLE ( 'NONE', #33, 0.2500000000000000000 ) ;
#202 = DIRECTION ( 'NONE',  ( 1.000000000000000000, 0.0000000000000000000, 0.0000000000000000000 ) ) ;
#203 = PERSON_AND_ORGANIZATION ( #181, #372 ) ;
#204 = CIRCLE ( 'NONE', #130, 0.4060000000000000275 ) ;
#205 = ORIENTED_EDGE ( 'NONE', *, *, #263, .T. ) ;
#206 = EDGE_LOOP ( 'NONE', ( #127 ) ) ;
#207 = APPROVAL_ROLE ( '' ) ;
#208 = EDGE_LOOP ( 'NONE', ( #294 ) ) ;
#209 = CYLINDRICAL_SURFACE ( 'NONE', #344, 0.4060000000000000275 ) ;
#210 = EDGE_LOOP ( 'NONE', ( #205 ) ) ;
#211 = DIRECTION ( 'NONE',  ( 1.000000000000000000, 0.0000000000000000000, -0.0000000000000000000 ) ) ;
#212 = PLANE ( 'NONE',  #370 ) ;
#213 = CARTESIAN_POINT ( 'NONE',  ( 0.0000000000000000000, 0.0000000000000000000, 0.0000000000000000000 ) ) ;
#214 = DIRECTION ( 'NONE',  ( 0.0000000000000000000, 0.0000000000000000000, 1.000000000000000000 ) ) ;
#215 = DIRECTION ( 'NONE',  ( 0.0000000000000000000, 0.0000000000000000000, 1.000000000000000000 ) ) ;
#216 = CYLINDRICAL_SURFACE ( 'NONE', #305, 0.1774999999999999911 ) ;
#217 = FACE_OUTER_BOUND ( 'NONE', #3, .T. ) ;
#218 = ORIENTED_EDGE ( 'NONE', *, *, #272, .F. ) ;
#219 = DIRECTION ( 'NONE',  ( 0.0000000000000000000, 0.0000000000000000000, 1.000000000000000000 ) ) ;
#220 = CC_DESIGN_DATE_AND_TIME_ASSIGNMENT ( #39, #374, ( #352 ) ) ;
#221 = CLOSED_SHELL ( 'NONE', ( #328, #114, #276, #96, #149, #176 ) ) ;
#222 = DIRECTION ( 'NONE',  ( 0.0000000000000000000, 0.0000000000000000000, 1.000000000000000000 ) ) ;
#223 = APPROVAL_DATE_TIME ( #143, #232 ) ;
#224 = DIRECTION ( 'NONE',  ( -0.0000000000000000000, -0.0000000000000000000, -1.000000000000000000 ) ) ;
#225 = DIRECTION ( 'NONE',  ( 1.000000000000000000, 0.0000000000000000000, 0.0000000000000000000 ) ) ;
#226 = PERSON_AND_ORGANIZATION ( #181, #372 ) ;
#227 = CIRCLE ( 'NONE', #283, 0.5000000000000000000 ) ;
#228 = DATE_TIME_ROLE ( 'creation_date' ) ;
#229 = EDGE_LOOP ( 'NONE', ( #241 ) ) ;
#230 = LOCAL_TIME ( 17, 34, 5.000000000000000000, #169 ) ;
#231 = CARTESIAN_POINT ( 'NONE',  ( 0.2500000000000000000, 0.0000000000000000000, 2.999999999999999556 ) ) ;
#232 = APPROVAL ( #173, 'UNSPECIFIED' ) ;
#233 = EDGE_LOOP ( 'NONE', ( #310 ) ) ;
#234 = APPROVAL_STATUS ( 'not_yet_approved' ) ;
#235 = AXIS2_PLACEMENT_3D ( 'NONE', #182, #66, #129 ) ;
#236 = DIRECTION ( 'NONE',  ( 1.000000000000000000, 0.0000000000000000000, 0.0000000000000000000 ) ) ;
#237 = EDGE_LOOP ( 'NONE', ( #31 ) ) ;
#238 = LOCAL_TIME ( 17, 34, 5.000000000000000000, #144 ) ;
#239 = EDGE_LOOP ( 'NONE', ( #63 ) ) ;
#240 = CARTESIAN_POINT ( 'NONE',  ( 0.0000000000000000000, 0.0000000000000000000, 0.0000000000000000000 ) ) ;
#241 = ORIENTED_EDGE ( 'NONE', *, *, #80, .T. ) ;
#242 = CARTESIAN_POINT ( 'NONE',  ( 0.0000000000000000000, 0.0000000000000000000, 9.015098379092068029E-15 ) ) ;
#243 = APPLICATION_CONTEXT ( 'configuration controlled 3d designs of mechanical parts and assemblies' ) ;
#244 = CARTESIAN_POINT ( 'NONE',  ( 0.0000000000000000000, 0.0000000000000000000, 0.0000000000000000000 ) ) ;
#245 = FACE_BOUND ( 'NONE', #319, .T. ) ;
#246 = CIRCLE ( 'NONE', #297, 0.4060000000000000275 ) ;
#247 = CARTESIAN_POINT ( 'NONE',  ( 0.0000000000000000000, 0.0000000000000000000, 0.02000000000000000042 ) ) ;
#248 = FACE_BOUND ( 'NONE', #146, .T. ) ;
#249 = DIRECTION ( 'NONE',  ( -0.0000000000000000000, -0.0000000000000000000, -1.000000000000000000 ) ) ;
#250 = ADVANCED_FACE ( 'NONE', ( #334, #358 ), #160, .F. ) ;
#251 = DIRECTION ( 'NONE',  ( 1.000000000000000000, 0.0000000000000000000, 0.0000000000000000000 ) ) ;
#252 = SECURITY_CLASSIFICATION_LEVEL ( 'unclassified' ) ;
#253 = CONICAL_SURFACE ( 'NONE', #325, 0.5000000000000485167, 0.7853981633973015075 ) ;
#254 = CARTESIAN_POINT ( 'NONE',  ( 0.1774999999999999911, 0.0000000000000000000, 2.999999999999999556 ) ) ;
#255 = APPROVAL_ROLE ( '' ) ;
#256 = EDGE_CURVE ( 'NONE', #317, #317, #16, .T. ) ;
#257 = DIRECTION ( 'NONE',  ( 1.000000000000000000, 0.0000000000000000000, 0.0000000000000000000 ) ) ;
#258 = COORDINATED_UNIVERSAL_TIME_OFFSET ( 5, 0, .BEHIND. ) ;
#259 = CARTESIAN_POINT ( 'NONE',  ( -0.4800000000000518297, 0.0000000000000000000, 3.000000000000051070 ) ) ;
#260 = PERSON_AND_ORGANIZATION_ROLE ( 'creator' ) ;
#261 = APPLICATION_PROTOCOL_DEFINITION ( 'international standard', 'config_control_design', 1994, #186 ) ;
#262 = CARTESIAN_POINT ( 'NONE',  ( 0.4060000000000000275, 0.0000000000000000000, -0.06199999999999999956 ) ) ;
#263 = EDGE_CURVE ( 'NONE', #318, #318, #227, .T. ) ;
#264 = DIRECTION ( 'NONE',  ( 0.0000000000000000000, 0.0000000000000000000, 1.000000000000000000 ) ) ;
#265 = FACE_BOUND ( 'NONE', #324, .T. ) ;
#266 = CONICAL_SURFACE ( 'NONE', #174, 0.4999999999999879541, 0.7853981633972999532 ) ;
#267 = EDGE_LOOP ( 'NONE', ( #102 ) ) ;
#268 = DIRECTION ( 'NONE',  ( 0.0000000000000000000, 0.0000000000000000000, 1.000000000000000000 ) ) ;
#269 = ORIENTED_EDGE ( 'NONE', *, *, #183, .F. ) ;
#270 = ORIENTED_EDGE ( 'NONE', *, *, #183, .T. ) ;
#271 = CARTESIAN_POINT ( 'NONE',  ( 0.0000000000000000000, 0.0000000000000000000, 3.000000000000051070 ) ) ;
#272 = EDGE_CURVE ( 'NONE', #289, #289, #124, .T. ) ;
#273 = APPROVAL_ROLE ( '' ) ;
#274 = CARTESIAN_POINT ( 'NONE',  ( 0.0000000000000000000, 0.0000000000000000000, 2.999999999999999556 ) ) ;
#275 = DIRECTION ( 'NONE',  ( 1.000000000000000000, 0.0000000000000000000, -0.0000000000000000000 ) ) ;
#276 = ADVANCED_FACE ( 'NONE', ( #84, #116 ), #266, .T. ) ;
#277 = DIRECTION ( 'NONE',  ( -0.0000000000000000000, -0.0000000000000000000, -1.000000000000000000 ) ) ;
#278 = DIRECTION ( 'NONE',  ( 1.000000000000000000, 0.0000000000000000000, -0.0000000000000000000 ) ) ;
#279 =( GEOMETRIC_REPRESENTATION_CONTEXT ( 3 ) GLOBAL_UNCERTAINTY_ASSIGNED_CONTEXT ( ( #109 ) ) GLOBAL_UNIT_ASSIGNED_CONTEXT ( ( #90, #376, #64 ) ) REPRESENTATION_CONTEXT ( 'NONE', 'WORKASPACE' ) );
#280 = DIRECTION ( 'NONE',  ( -0.0000000000000000000, -0.0000000000000000000, -1.000000000000000000 ) ) ;
#281 = FACE_OUTER_BOUND ( 'NONE', #229, .T. ) ;
#282 = APPROVAL_DATE_TIME ( #359, #296 ) ;
#283 = AXIS2_PLACEMENT_3D ( 'NONE', #247, #219, #371 ) ;
#284 = DIRECTION ( 'NONE',  ( 0.0000000000000000000, 0.0000000000000000000, 1.000000000000000000 ) ) ;
#285 = CIRCLE ( 'NONE', #53, 0.1774999999999999911 ) ;
#286 = CARTESIAN_POINT ( 'NONE',  ( 0.0000000000000000000, 0.0000000000000000000, -0.06199999999999999956 ) ) ;
#287 = DATE_AND_TIME ( #89, #5 ) ;
#288 = ADVANCED_FACE ( 'NONE', ( #281, #17 ), #364, .T. ) ;
#289 = VERTEX_POINT ( 'NONE', #231 ) ;
#290 = CIRCLE ( 'NONE', #94, 0.1774999999999999911 ) ;
#291 = ADVANCED_FACE ( 'NONE', ( #108, #195 ), #170, .F. ) ;
#292 = PERSON_AND_ORGANIZATION ( #181, #372 ) ;
#293 = FACE_OUTER_BOUND ( 'NONE', #355, .T. ) ;
#294 = ORIENTED_EDGE ( 'NONE', *, *, #256, .T. ) ;
#295 = EDGE_CURVE ( 'NONE', #349, #349, #285, .T. ) ;
#296 = APPROVAL ( #159, 'UNSPECIFIED' ) ;
#297 = AXIS2_PLACEMENT_3D ( 'NONE', #135, #45, #165 ) ;
#298 = EDGE_LOOP ( 'NONE', ( #36 ) ) ;
#299 = ORIENTED_EDGE ( 'NONE', *, *, #333, .T. ) ;
#300 = CC_DESIGN_APPROVAL ( #321, ( #200 ) ) ;
#301 = ORIENTED_EDGE ( 'NONE', *, *, #272, .T. ) ;
#302 = EDGE_LOOP ( 'NONE', ( #270 ) ) ;
#303 = FACE_BOUND ( 'NONE', #327, .T. ) ;
#304 = AXIS2_PLACEMENT_3D ( 'NONE', #192, #309, #15 ) ;
#305 = AXIS2_PLACEMENT_3D ( 'NONE', #286, #164, #336 ) ;
#306 = DIRECTION ( 'NONE',  ( -1.000000000000000000, 0.0000000000000000000, 0.0000000000000000000 ) ) ;
#307 = CARTESIAN_POINT ( 'NONE',  ( 0.0000000000000000000, 0.0000000000000000000, 2.999999999999999556 ) ) ;
#308 = CARTESIAN_POINT ( 'NONE',  ( 0.1774999999999999911, 0.0000000000000000000, 3.061999999999999833 ) ) ;
#309 = DIRECTION ( 'NONE',  ( -0.0000000000000000000, -0.0000000000000000000, -1.000000000000000000 ) ) ;
#310 = ORIENTED_EDGE ( 'NONE', *, *, #21, .T. ) ;
#311 = DIRECTION ( 'NONE',  ( 0.0000000000000000000, 0.0000000000000000000, 1.000000000000000000 ) ) ;
#312 = CARTESIAN_POINT ( 'NONE',  ( 0.0000000000000000000, 0.0000000000000000000, 0.0000000000000000000 ) ) ;
#313 = DIRECTION ( 'NONE',  ( 0.0000000000000000000, 0.0000000000000000000, 1.000000000000000000 ) ) ;
#314 = CALENDAR_DATE ( 2021, 9, 2 ) ;
#315 = CARTESIAN_POINT ( 'NONE',  ( 0.5000000000000000000, 0.0000000000000000000, 2.979999999999999982 ) ) ;
#316 = PERSON_AND_ORGANIZATION ( #181, #372 ) ;
#317 = VERTEX_POINT ( 'NONE', #29 ) ;
#318 = VERTEX_POINT ( 'NONE', #87 ) ;
#319 = EDGE_LOOP ( 'NONE', ( #151 ) ) ;
#320 = CC_DESIGN_APPROVAL ( #296, ( #352 ) ) ;
#321 = APPROVAL ( #234, 'UNSPECIFIED' ) ;
#322 = MANIFOLD_SOLID_BREP ( 'SEALING-WASHER-2-solid1', #113 ) ;
#323 = ORIENTED_EDGE ( 'NONE', *, *, #356, .T. ) ;
#324 = EDGE_LOOP ( 'NONE', ( #301 ) ) ;
#325 = AXIS2_PLACEMENT_3D ( 'NONE', #158, #329, #306 ) ;
#326 = CARTESIAN_POINT ( 'NONE',  ( 0.0000000000000000000, 0.0000000000000000000, 0.0000000000000000000 ) ) ;
#327 = EDGE_LOOP ( 'NONE', ( #162 ) ) ;
#328 = ADVANCED_FACE ( 'NONE', ( #137, #22 ), #81, .T. ) ;
#329 = DIRECTION ( 'NONE',  ( 0.0000000000000000000, 0.0000000000000000000, -1.000000000000000000 ) ) ;
#330 = PLANE ( 'NONE',  #331 ) ;
#331 = AXIS2_PLACEMENT_3D ( 'NONE', #188, #79, #361 ) ;
#332 = PERSON_AND_ORGANIZATION ( #181, #372 ) ;
#333 = EDGE_CURVE ( 'NONE', #58, #58, #363, .T. ) ;
#334 = FACE_OUTER_BOUND ( 'NONE', #6, .T. ) ;
#335 = MANIFOLD_SOLID_BREP ( 'SEALING-WASHER-1-solid1', #134 ) ;
#336 = DIRECTION ( 'NONE',  ( 1.000000000000000000, 0.0000000000000000000, 0.0000000000000000000 ) ) ;
#337 = PLANE ( 'NONE',  #82 ) ;
#338 = CARTESIAN_POINT ( 'NONE',  ( 0.4060000000000000275, 0.0000000000000000000, 3.061999999999999833 ) ) ;
#339 = AXIS2_PLACEMENT_3D ( 'NONE', #244, #214, #278 ) ;
#340 = DIRECTION ( 'NONE',  ( 0.0000000000000000000, 0.0000000000000000000, 1.000000000000000000 ) ) ;
#341 = DIRECTION ( 'NONE',  ( 1.000000000000000000, 0.0000000000000000000, 0.0000000000000000000 ) ) ;
#342 = DIRECTION ( 'NONE',  ( 1.000000000000000000, 0.0000000000000000000, 0.0000000000000000000 ) ) ;
#343 = ORIENTED_EDGE ( 'NONE', *, *, #80, .F. ) ;
#344 = AXIS2_PLACEMENT_3D ( 'NONE', #32, #268, #236 ) ;
#345 = CALENDAR_DATE ( 2021, 9, 2 ) ;
#346 = PERSON_AND_ORGANIZATION ( #181, #372 ) ;
#347 = ORIENTED_EDGE ( 'NONE', *, *, #356, .F. ) ;
#348 = MECHANICAL_CONTEXT ( 'NONE', #186, 'mechanical' ) ;
#349 = VERTEX_POINT ( 'NONE', #95 ) ;
#350 = AXIS2_PLACEMENT_3D ( 'NONE', #190, #311, #251 ) ;
#351 = ORIENTED_EDGE ( 'NONE', *, *, #21, .F. ) ;
#352 = SECURITY_CLASSIFICATION ( '', '', #252 ) ;
#353 = ORIENTED_EDGE ( 'NONE', *, *, #295, .F. ) ;
#354 = DIRECTION ( 'NONE',  ( 0.0000000000000000000, 0.0000000000000000000, 1.000000000000000000 ) ) ;
#355 = EDGE_LOOP ( 'NONE', ( #343 ) ) ;
#356 = EDGE_CURVE ( 'NONE', #56, #56, #201, .T. ) ;
#357 = DIRECTION ( 'NONE',  ( -0.0000000000000000000, -0.0000000000000000000, -1.000000000000000000 ) ) ;
#358 = FACE_OUTER_BOUND ( 'NONE', #98, .T. ) ;
#359 = DATE_AND_TIME ( #119, #136 ) ;
#360 = CC_DESIGN_PERSON_AND_ORGANIZATION_ASSIGNMENT ( #292, #1, ( #4 ) ) ;
#361 = DIRECTION ( 'NONE',  ( 1.000000000000000000, 0.0000000000000000000, -0.0000000000000000000 ) ) ;
#362 = CIRCLE ( 'NONE', #60, 0.4800000000000518297 ) ;
#363 = CIRCLE ( 'NONE', #88, 0.4060000000000000275 ) ;
#364 = CYLINDRICAL_SURFACE ( 'NONE', #99, 0.4060000000000000275 ) ;
#365 = PLANE ( 'NONE',  #339 ) ;
#366 = ORIENTED_EDGE ( 'NONE', *, *, #295, .T. ) ;
#367 = CARTESIAN_POINT ( 'NONE',  ( 0.4060000000000000275, 0.0000000000000000000, 2.999999999999999556 ) ) ;
#368 = ADVANCED_FACE ( 'NONE', ( #86, #198 ), #216, .F. ) ;
#369 = DIRECTION ( 'NONE',  ( 1.000000000000000000, 0.0000000000000000000, 0.0000000000000000000 ) ) ;
#370 = AXIS2_PLACEMENT_3D ( 'NONE', #240, #354, #211 ) ;
#371 = DIRECTION ( 'NONE',  ( 1.000000000000000000, 0.0000000000000000000, 0.0000000000000000000 ) ) ;
#372 = ORGANIZATION ( 'UNSPECIFIED', 'UNSPECIFIED', '' ) ;
#373 = CARTESIAN_POINT ( 'NONE',  ( 0.0000000000000000000, 0.0000000000000000000, -0.06199999999999999956 ) ) ;
#374 = DATE_TIME_ROLE ( 'classification_date' ) ;
#375 = EDGE_LOOP ( 'NONE', ( #10 ) ) ;
#376 =( NAMED_UNIT ( * ) PLANE_ANGLE_UNIT ( ) SI_UNIT ( $, .RADIAN. ) );
ENDSEC;
END-ISO-10303-21;
