ISO-10303-21;
HEADER;
FILE_DESCRIPTION (( 'STEP AP203' ),
    '1' );
FILE_NAME ('SCE-WMS4SS.step',
    '2021-02-09T22:34:07',
    ( 'ADC123' ),
    ( 'Microsoft' ),
    'SwSTEP 2.0',
    'SolidWorks 2019',
    '' );
FILE_SCHEMA (( 'CONFIG_CONTROL_DESIGN' ));
ENDSEC;

DATA;
#1 = FACE_BOUND ( 'NONE', #40, .T. ) ;
#2 = AXIS2_PLACEMENT_3D ( 'NONE', #136, #149, #56 ) ;
#3 = CARTESIAN_POINT ( 'NONE',  ( 0.0000000000000000000, 0.0000000000000000000, 4.000000000000000000 ) ) ;
#4 = FACE_OUTER_BOUND ( 'NONE', #226, .T. ) ;
#5 = VERTEX_POINT ( 'NONE', #125 ) ;
#6 = PRODUCT_RELATED_PRODUCT_CATEGORY ( 'detail', '', ( #123 ) ) ;
#7 = EDGE_LOOP ( 'NONE', ( #330 ) ) ;
#8 = DIRECTION ( 'NONE',  ( 1.000000000000000000, 0.0000000000000000000, 0.0000000000000000000 ) ) ;
#9 = FACE_OUTER_BOUND ( 'NONE', #280, .T. ) ;
#10 = AXIS2_PLACEMENT_3D ( 'NONE', #121, #345, #205 ) ;
#11 = EDGE_CURVE ( 'NONE', #202, #202, #361, .T. ) ;
#12 = EDGE_LOOP ( 'NONE', ( #113 ) ) ;
#13 = PERSON_AND_ORGANIZATION_ROLE ( 'design_owner' ) ;
#14 = ORIENTED_EDGE ( 'NONE', *, *, #11, .T. ) ;
#15 = APPROVAL_ROLE ( '' ) ;
#16 = PERSON_AND_ORGANIZATION_ROLE ( 'design_supplier' ) ;
#17 = DATE_TIME_ROLE ( 'creation_date' ) ;
#18 = UNCERTAINTY_MEASURE_WITH_UNIT (LENGTH_MEASURE( 1.000000000000000082E-05 ), #265, 'distance_accuracy_value', 'NONE');
#19 = ADVANCED_FACE ( 'NONE', ( #135, #157 ), #51, .F. ) ;
#20 = ORIENTED_EDGE ( 'NONE', *, *, #46, .F. ) ;
#21 = EDGE_LOOP ( 'NONE', ( #182 ) ) ;
#22 = ORIENTED_EDGE ( 'NONE', *, *, #153, .T. ) ;
#23 = DIRECTION ( 'NONE',  ( -0.0000000000000000000, -0.0000000000000000000, -1.000000000000000000 ) ) ;
#24 = CARTESIAN_POINT ( 'NONE',  ( 0.0000000000000000000, 0.0000000000000000000, 0.0000000000000000000 ) ) ;
#25 = DIRECTION ( 'NONE',  ( 1.000000000000000000, 0.0000000000000000000, 0.0000000000000000000 ) ) ;
#26 = CIRCLE ( 'NONE', #354, 0.4800000000000125278 ) ;
#27 = PLANE ( 'NONE',  #334 ) ;
#28 = DIRECTION ( 'NONE',  ( -0.0000000000000000000, -0.0000000000000000000, -1.000000000000000000 ) ) ;
#29 = DIRECTION ( 'NONE',  ( -0.0000000000000000000, -0.0000000000000000000, -1.000000000000000000 ) ) ;
#30 = LOCAL_TIME ( 17, 34, 7.000000000000000000, #250 ) ;
#31 = CIRCLE ( 'NONE', #294, 0.5000000000000000000 ) ;
#32 = DIRECTION ( 'NONE',  ( 0.0000000000000000000, 0.0000000000000000000, -1.000000000000000000 ) ) ;
#33 = DIRECTION ( 'NONE',  ( 1.000000000000000000, 0.0000000000000000000, -0.0000000000000000000 ) ) ;
#34 = ADVANCED_FACE ( 'NONE', ( #306, #138 ), #368, .F. ) ;
#35 = CYLINDRICAL_SURFACE ( 'NONE', #85, 0.1774999999999999911 ) ;
#36 = VERTEX_POINT ( 'NONE', #293 ) ;
#37 = CIRCLE ( 'NONE', #111, 0.2500000000000000000 ) ;
#38 = ADVANCED_FACE ( 'NONE', ( #336, #80 ), #220, .T. ) ;
#39 = LENGTH_MEASURE_WITH_UNIT ( LENGTH_MEASURE( 0.02539999999999999897 ), #131 );
#40 = EDGE_LOOP ( 'NONE', ( #110 ) ) ;
#41 = ORIENTED_EDGE ( 'NONE', *, *, #46, .T. ) ;
#42 = PERSON_AND_ORGANIZATION_ROLE ( 'creator' ) ;
#43 =( NAMED_UNIT ( * ) PLANE_ANGLE_UNIT ( ) SI_UNIT ( $, .RADIAN. ) );
#44 = PERSON_AND_ORGANIZATION ( #326, #359 ) ;
#45 = AXIS2_PLACEMENT_3D ( 'NONE', #291, #94, #25 ) ;
#46 = EDGE_CURVE ( 'NONE', #126, #126, #236, .T. ) ;
#47 = CC_DESIGN_PERSON_AND_ORGANIZATION_ASSIGNMENT ( #160, #42, ( #118 ) ) ;
#48 = EDGE_LOOP ( 'NONE', ( #217 ) ) ;
#49 = AXIS2_PLACEMENT_3D ( 'NONE', #308, #165, #107 ) ;
#50 = CARTESIAN_POINT ( 'NONE',  ( 0.0000000000000000000, 0.0000000000000000000, 4.062000000000000277 ) ) ;
#51 = PLANE ( 'NONE',  #49 ) ;
#52 = DIRECTION ( 'NONE',  ( 0.0000000000000000000, 0.0000000000000000000, 1.000000000000000000 ) ) ;
#53 = DIRECTION ( 'NONE',  ( 1.000000000000000000, 0.0000000000000000000, 0.0000000000000000000 ) ) ;
#54 = DIRECTION ( 'NONE',  ( -1.000000000000000000, 0.0000000000000000000, 0.0000000000000000000 ) ) ;
#55 = ADVANCED_FACE ( 'NONE', ( #374, #311 ), #286, .T. ) ;
#56 = DIRECTION ( 'NONE',  ( 1.000000000000000000, 0.0000000000000000000, 0.0000000000000000000 ) ) ;
#57 = DIRECTION ( 'NONE',  ( 0.0000000000000000000, 0.0000000000000000000, -1.000000000000000000 ) ) ;
#58 = DIRECTION ( 'NONE',  ( 1.000000000000000000, 0.0000000000000000000, 0.0000000000000000000 ) ) ;
#59 = ORIENTED_EDGE ( 'NONE', *, *, #327, .T. ) ;
#60 = CARTESIAN_POINT ( 'NONE',  ( 0.0000000000000000000, 0.0000000000000000000, 0.0000000000000000000 ) ) ;
#61 = APPROVAL_PERSON_ORGANIZATION ( #104, #73, #186 ) ;
#62 = ADVANCED_FACE ( 'NONE', ( #320, #225 ), #257, .T. ) ;
#63 = DIRECTION ( 'NONE',  ( -0.0000000000000000000, -0.0000000000000000000, -1.000000000000000000 ) ) ;
#64 = DIRECTION ( 'NONE',  ( 0.0000000000000000000, 0.0000000000000000000, 1.000000000000000000 ) ) ;
#65 = APPLICATION_PROTOCOL_DEFINITION ( 'international standard', 'config_control_design', 1994, #283 ) ;
#66 = CC_DESIGN_PERSON_AND_ORGANIZATION_ASSIGNMENT ( #44, #77, ( #313 ) ) ;
#67 = MANIFOLD_SOLID_BREP ( 'SEALING-WASHER-1-solid1', #338 ) ;
#68 = CARTESIAN_POINT ( 'NONE',  ( 0.2500000000000000000, 0.0000000000000000000, 4.000000000000000000 ) ) ;
#69 = EDGE_LOOP ( 'NONE', ( #14 ) ) ;
#70 = ORIENTED_EDGE ( 'NONE', *, *, #167, .T. ) ;
#71 = SHAPE_DEFINITION_REPRESENTATION ( #228, #106 ) ;
#72 = VERTEX_POINT ( 'NONE', #183 ) ;
#73 = APPROVAL ( #184, 'UNSPECIFIED' ) ;
#74 = PERSON_AND_ORGANIZATION ( #326, #359 ) ;
#75 = ADVANCED_FACE ( 'NONE', ( #4, #347 ), #209, .T. ) ;
#76 = AXIS2_PLACEMENT_3D ( 'NONE', #91, #282, #198 ) ;
#77 = PERSON_AND_ORGANIZATION_ROLE ( 'classification_officer' ) ;
#78 = AXIS2_PLACEMENT_3D ( 'NONE', #197, #375, #53 ) ;
#79 = EDGE_LOOP ( 'NONE', ( #215 ) ) ;
#80 = FACE_OUTER_BOUND ( 'NONE', #211, .T. ) ;
#81 = AXIS2_PLACEMENT_3D ( 'NONE', #173, #52, #281 ) ;
#82 = ORIENTED_EDGE ( 'NONE', *, *, #353, .T. ) ;
#83 = EDGE_LOOP ( 'NONE', ( #247 ) ) ;
#84 = DATE_AND_TIME ( #133, #89 ) ;
#85 = AXIS2_PLACEMENT_3D ( 'NONE', #232, #261, #143 ) ;
#86 = CARTESIAN_POINT ( 'NONE',  ( 0.0000000000000000000, 0.0000000000000000000, 0.0000000000000000000 ) ) ;
#87 = FACE_OUTER_BOUND ( 'NONE', #348, .T. ) ;
#88 = ADVANCED_FACE ( 'NONE', ( #284, #221 ), #312, .F. ) ;
#89 = LOCAL_TIME ( 17, 34, 7.000000000000000000, #304 ) ;
#90 = DIRECTION ( 'NONE',  ( 0.0000000000000000000, 0.0000000000000000000, 1.000000000000000000 ) ) ;
#91 = CARTESIAN_POINT ( 'NONE',  ( 0.0000000000000000000, 0.0000000000000000000, -0.06199999999999999956 ) ) ;
#92 = ORIENTED_EDGE ( 'NONE', *, *, #327, .F. ) ;
#93 = CARTESIAN_POINT ( 'NONE',  ( 0.0000000000000000000, 0.0000000000000000000, 3.980000000000148752 ) ) ;
#94 = DIRECTION ( 'NONE',  ( -0.0000000000000000000, -0.0000000000000000000, -1.000000000000000000 ) ) ;
#95 = CARTESIAN_POINT ( 'NONE',  ( 0.1774999999999999911, 0.0000000000000000000, 0.0000000000000000000 ) ) ;
#96 = CIRCLE ( 'NONE', #344, 0.1774999999999999911 ) ;
#97 = CARTESIAN_POINT ( 'NONE',  ( 0.0000000000000000000, 0.0000000000000000000, -0.06199999999999999956 ) ) ;
#98 = APPROVAL ( #239, 'UNSPECIFIED' ) ;
#99 = AXIS2_PLACEMENT_3D ( 'NONE', #60, #170, #33 ) ;
#100 = VERTEX_POINT ( 'NONE', #206 ) ;
#101 = AXIS2_PLACEMENT_3D ( 'NONE', #97, #64, #351 ) ;
#102 = CARTESIAN_POINT ( 'NONE',  ( 0.4060000000000000275, 0.0000000000000000000, 0.0000000000000000000 ) ) ;
#103 = EDGE_LOOP ( 'NONE', ( #59 ) ) ;
#104 = PERSON_AND_ORGANIZATION ( #326, #359 ) ;
#105 = COORDINATED_UNIVERSAL_TIME_OFFSET ( 5, 0, .BEHIND. ) ;
#106 = ADVANCED_BREP_SHAPE_REPRESENTATION ( 'SCE-WMS4SS', ( #315, #67, #317, #204 ), #147 ) ;
#107 = DIRECTION ( 'NONE',  ( 1.000000000000000000, 0.0000000000000000000, -0.0000000000000000000 ) ) ;
#108 = EDGE_CURVE ( 'NONE', #287, #287, #309, .T. ) ;
#109 = CARTESIAN_POINT ( 'NONE',  ( 0.0000000000000000000, 0.0000000000000000000, 0.0000000000000000000 ) ) ;
#110 = ORIENTED_EDGE ( 'NONE', *, *, #279, .T. ) ;
#111 = AXIS2_PLACEMENT_3D ( 'NONE', #253, #63, #223 ) ;
#112 = AXIS2_PLACEMENT_3D ( 'NONE', #109, #358, #156 ) ;
#113 = ORIENTED_EDGE ( 'NONE', *, *, #360, .F. ) ;
#114 = DIRECTION ( 'NONE',  ( 1.000000000000000000, 0.0000000000000000000, 0.0000000000000000000 ) ) ;
#115 = APPROVAL_DATE_TIME ( #278, #73 ) ;
#116 = DIRECTION ( 'NONE',  ( 0.0000000000000000000, 0.0000000000000000000, 1.000000000000000000 ) ) ;
#117 = FACE_BOUND ( 'NONE', #7, .T. ) ;
#118 = PRODUCT_DEFINITION ( 'UNKNOWN', '', #288, #185 ) ;
#119 = CARTESIAN_POINT ( 'NONE',  ( 0.0000000000000000000, 0.0000000000000000000, 0.02000000000000000042 ) ) ;
#120 = EDGE_LOOP ( 'NONE', ( #242 ) ) ;
#121 = CARTESIAN_POINT ( 'NONE',  ( 0.0000000000000000000, 0.0000000000000000000, -0.06199999999999999956 ) ) ;
#122 = EDGE_CURVE ( 'NONE', #5, #5, #31, .T. ) ;
#123 = PRODUCT ( 'SCE-WMS4SS', 'SCE-WMS4SS', '', ( #180 ) ) ;
#124 = DIRECTION ( 'NONE',  ( 0.0000000000000000000, 0.0000000000000000000, 1.000000000000000000 ) ) ;
#125 = CARTESIAN_POINT ( 'NONE',  ( 0.5000000000000000000, 0.0000000000000000000, 0.02000000000000000042 ) ) ;
#126 = VERTEX_POINT ( 'NONE', #321 ) ;
#127 = CARTESIAN_POINT ( 'NONE',  ( 0.0000000000000000000, 0.0000000000000000000, 4.000000000000000000 ) ) ;
#128 = VERTEX_POINT ( 'NONE', #234 ) ;
#129 = DIRECTION ( 'NONE',  ( 1.000000000000000000, 0.0000000000000000000, 0.0000000000000000000 ) ) ;
#130 = DIRECTION ( 'NONE',  ( -0.0000000000000000000, -0.0000000000000000000, -1.000000000000000000 ) ) ;
#131 =( LENGTH_UNIT ( ) NAMED_UNIT ( * ) SI_UNIT ( $, .METRE. ) );
#132 = EDGE_LOOP ( 'NONE', ( #299 ) ) ;
#133 = CALENDAR_DATE ( 2021, 9, 2 ) ;
#134 = CIRCLE ( 'NONE', #78, 0.5000000000000000000 ) ;
#135 = FACE_BOUND ( 'NONE', #191, .T. ) ;
#136 = CARTESIAN_POINT ( 'NONE',  ( 0.0000000000000000000, 0.0000000000000000000, -0.06199999999999999956 ) ) ;
#137 = CC_DESIGN_DATE_AND_TIME_ASSIGNMENT ( #84, #240, ( #313 ) ) ;
#138 = FACE_OUTER_BOUND ( 'NONE', #340, .T. ) ;
#139 = APPROVAL_DATE_TIME ( #166, #163 ) ;
#140 = CC_DESIGN_APPROVAL ( #98, ( #313 ) ) ;
#141 = DIRECTION ( 'NONE',  ( 1.000000000000000000, 0.0000000000000000000, 0.0000000000000000000 ) ) ;
#142 = CARTESIAN_POINT ( 'NONE',  ( 0.0000000000000000000, 0.0000000000000000000, 0.01999999999999051495 ) ) ;
#143 = DIRECTION ( 'NONE',  ( 1.000000000000000000, 0.0000000000000000000, 0.0000000000000000000 ) ) ;
#144 = DIRECTION ( 'NONE',  ( 1.000000000000000000, 0.0000000000000000000, -0.0000000000000000000 ) ) ;
#145 = EDGE_CURVE ( 'NONE', #350, #350, #238, .T. ) ;
#146 = PLANE ( 'NONE',  #99 ) ;
#147 =( GEOMETRIC_REPRESENTATION_CONTEXT ( 3 ) GLOBAL_UNCERTAINTY_ASSIGNED_CONTEXT ( ( #18 ) ) GLOBAL_UNIT_ASSIGNED_CONTEXT ( ( #265, #43, #159 ) ) REPRESENTATION_CONTEXT ( 'NONE', 'WORKASPACE' ) );
#148 = AXIS2_PLACEMENT_3D ( 'NONE', #168, #124, #58 ) ;
#149 = DIRECTION ( 'NONE',  ( -0.0000000000000000000, -0.0000000000000000000, -1.000000000000000000 ) ) ;
#150 = DIRECTION ( 'NONE',  ( 0.0000000000000000000, 0.0000000000000000000, 1.000000000000000000 ) ) ;
#151 = CARTESIAN_POINT ( 'NONE',  ( 0.0000000000000000000, 0.0000000000000000000, 4.000000000000000000 ) ) ;
#152 = FACE_OUTER_BOUND ( 'NONE', #244, .T. ) ;
#153 = EDGE_CURVE ( 'NONE', #203, #203, #339, .T. ) ;
#154 = CC_DESIGN_APPROVAL ( #73, ( #118 ) ) ;
#155 = AXIS2_PLACEMENT_3D ( 'NONE', #93, #32, #54 ) ;
#156 = DIRECTION ( 'NONE',  ( 1.000000000000000000, 0.0000000000000000000, 0.0000000000000000000 ) ) ;
#157 = FACE_OUTER_BOUND ( 'NONE', #12, .T. ) ;
#158 = AXIS2_PLACEMENT_3D ( 'NONE', #151, #230, #200 ) ;
#159 =( NAMED_UNIT ( * ) SI_UNIT ( $, .STERADIAN. ) SOLID_ANGLE_UNIT ( ) );
#160 = PERSON_AND_ORGANIZATION ( #326, #359 ) ;
#161 = EDGE_LOOP ( 'NONE', ( #335 ) ) ;
#162 = DIRECTION ( 'NONE',  ( 0.0000000000000000000, 0.0000000000000000000, 1.000000000000000000 ) ) ;
#163 = APPROVAL ( #214, 'UNSPECIFIED' ) ;
#164 = DIMENSIONAL_EXPONENTS ( 1.000000000000000000, 0.0000000000000000000, 0.0000000000000000000, 0.0000000000000000000, 0.0000000000000000000, 0.0000000000000000000, 0.0000000000000000000 ) ;
#165 = DIRECTION ( 'NONE',  ( 0.0000000000000000000, 0.0000000000000000000, 1.000000000000000000 ) ) ;
#166 = DATE_AND_TIME ( #300, #269 ) ;
#167 = EDGE_CURVE ( 'NONE', #362, #362, #134, .T. ) ;
#168 = CARTESIAN_POINT ( 'NONE',  ( 0.0000000000000000000, 0.0000000000000000000, 4.000000000000000000 ) ) ;
#169 = FACE_OUTER_BOUND ( 'NONE', #210, .T. ) ;
#170 = DIRECTION ( 'NONE',  ( 0.0000000000000000000, 0.0000000000000000000, 1.000000000000000000 ) ) ;
#171 = DIRECTION ( 'NONE',  ( 0.0000000000000000000, 0.0000000000000000000, 1.000000000000000000 ) ) ;
#172 = DIRECTION ( 'NONE',  ( -1.000000000000000000, 0.0000000000000000000, 0.0000000000000000000 ) ) ;
#173 = CARTESIAN_POINT ( 'NONE',  ( 0.0000000000000000000, 0.0000000000000000000, 0.0000000000000000000 ) ) ;
#174 = ORIENTED_EDGE ( 'NONE', *, *, #122, .F. ) ;
#175 = CARTESIAN_POINT ( 'NONE',  ( 0.4060000000000000275, 0.0000000000000000000, 4.062000000000000277 ) ) ;
#176 = LOCAL_TIME ( 17, 34, 7.000000000000000000, #373 ) ;
#177 = AXIS2_PLACEMENT_3D ( 'NONE', #190, #130, #273 ) ;
#178 = FACE_OUTER_BOUND ( 'NONE', #21, .T. ) ;
#179 = FACE_OUTER_BOUND ( 'NONE', #79, .T. ) ;
#180 = MECHANICAL_CONTEXT ( 'NONE', #283, 'mechanical' ) ;
#181 = VERTEX_POINT ( 'NONE', #102 ) ;
#182 = ORIENTED_EDGE ( 'NONE', *, *, #360, .T. ) ;
#183 = CARTESIAN_POINT ( 'NONE',  ( 0.2500000000000000000, 0.0000000000000000000, 0.0000000000000000000 ) ) ;
#184 = APPROVAL_STATUS ( 'not_yet_approved' ) ;
#185 = DESIGN_CONTEXT ( 'detailed design', #187, 'design' ) ;
#186 = APPROVAL_ROLE ( '' ) ;
#187 = APPLICATION_CONTEXT ( 'configuration controlled 3d designs of mechanical parts and assemblies' ) ;
#188 = CALENDAR_DATE ( 2021, 9, 2 ) ;
#189 = CIRCLE ( 'NONE', #45, 0.4060000000000000275 ) ;
#190 = CARTESIAN_POINT ( 'NONE',  ( 0.0000000000000000000, 0.0000000000000000000, 4.062000000000000277 ) ) ;
#191 = EDGE_LOOP ( 'NONE', ( #92 ) ) ;
#192 = CC_DESIGN_APPROVAL ( #163, ( #288 ) ) ;
#193 = AXIS2_PLACEMENT_3D ( 'NONE', #342, #23, #141 ) ;
#194 = ORIENTED_EDGE ( 'NONE', *, *, #245, .F. ) ;
#195 = ORIENTED_EDGE ( 'NONE', *, *, #11, .F. ) ;
#196 = COORDINATED_UNIVERSAL_TIME_OFFSET ( 5, 0, .BEHIND. ) ;
#197 = CARTESIAN_POINT ( 'NONE',  ( 0.0000000000000000000, 0.0000000000000000000, 3.979999999999999982 ) ) ;
#198 = DIRECTION ( 'NONE',  ( 1.000000000000000000, 0.0000000000000000000, 0.0000000000000000000 ) ) ;
#199 = FACE_BOUND ( 'NONE', #275, .T. ) ;
#200 = DIRECTION ( 'NONE',  ( 1.000000000000000000, 0.0000000000000000000, 0.0000000000000000000 ) ) ;
#201 = DIRECTION ( 'NONE',  ( 1.000000000000000000, 0.0000000000000000000, 0.0000000000000000000 ) ) ;
#202 = VERTEX_POINT ( 'NONE', #175 ) ;
#203 = VERTEX_POINT ( 'NONE', #68 ) ;
#204 = AXIS2_PLACEMENT_3D ( 'NONE', #296, #355, #129 ) ;
#205 = DIRECTION ( 'NONE',  ( 1.000000000000000000, 0.0000000000000000000, -0.0000000000000000000 ) ) ;
#206 = CARTESIAN_POINT ( 'NONE',  ( 0.4060000000000000275, 0.0000000000000000000, -0.06199999999999999956 ) ) ;
#207 = CC_DESIGN_PERSON_AND_ORGANIZATION_ASSIGNMENT ( #333, #16, ( #288 ) ) ;
#208 = ADVANCED_FACE ( 'NONE', ( #199, #169 ), #27, .T. ) ;
#209 = CONICAL_SURFACE ( 'NONE', #256, 0.5000000000000094369, 0.7853981633972995091 ) ;
#210 = EDGE_LOOP ( 'NONE', ( #310 ) ) ;
#211 = EDGE_LOOP ( 'NONE', ( #195 ) ) ;
#212 = APPROVAL_PERSON_ORGANIZATION ( #74, #98, #15 ) ;
#213 = ADVANCED_FACE ( 'NONE', ( #254, #1 ), #263, .T. ) ;
#214 = APPROVAL_STATUS ( 'not_yet_approved' ) ;
#215 = ORIENTED_EDGE ( 'NONE', *, *, #319, .F. ) ;
#216 = EDGE_LOOP ( 'NONE', ( #268 ) ) ;
#217 = ORIENTED_EDGE ( 'NONE', *, *, #319, .T. ) ;
#218 = CIRCLE ( 'NONE', #158, 0.4060000000000000275 ) ;
#219 = CLOSED_SHELL ( 'NONE', ( #224, #241, #328, #55 ) ) ;
#220 = PLANE ( 'NONE',  #372 ) ;
#221 = FACE_OUTER_BOUND ( 'NONE', #103, .T. ) ;
#222 = DIRECTION ( 'NONE',  ( 1.000000000000000000, 0.0000000000000000000, 0.0000000000000000000 ) ) ;
#223 = DIRECTION ( 'NONE',  ( 1.000000000000000000, 0.0000000000000000000, 0.0000000000000000000 ) ) ;
#224 = ADVANCED_FACE ( 'NONE', ( #285, #179 ), #227, .F. ) ;
#225 = FACE_OUTER_BOUND ( 'NONE', #258, .T. ) ;
#226 = EDGE_LOOP ( 'NONE', ( #174 ) ) ;
#227 = PLANE ( 'NONE',  #10 ) ;
#228 = PRODUCT_DEFINITION_SHAPE ( 'NONE', 'NONE',  #118 ) ;
#229 = DIRECTION ( 'NONE',  ( -0.0000000000000000000, -0.0000000000000000000, -1.000000000000000000 ) ) ;
#230 = DIRECTION ( 'NONE',  ( 0.0000000000000000000, 0.0000000000000000000, 1.000000000000000000 ) ) ;
#231 = ADVANCED_FACE ( 'NONE', ( #117, #152 ), #146, .F. ) ;
#232 = CARTESIAN_POINT ( 'NONE',  ( 0.0000000000000000000, 0.0000000000000000000, -0.06199999999999999956 ) ) ;
#233 = DIRECTION ( 'NONE',  ( 1.000000000000000000, 0.0000000000000000000, 0.0000000000000000000 ) ) ;
#234 = CARTESIAN_POINT ( 'NONE',  ( 0.1774999999999999911, 0.0000000000000000000, 4.000000000000000000 ) ) ;
#235 = EDGE_LOOP ( 'NONE', ( #337 ) ) ;
#236 = CIRCLE ( 'NONE', #2, 0.1774999999999999911 ) ;
#237 = APPLICATION_PROTOCOL_DEFINITION ( 'international standard', 'config_control_design', 1994, #187 ) ;
#238 = CIRCLE ( 'NONE', #271, 0.1774999999999999911 ) ;
#239 = APPROVAL_STATUS ( 'not_yet_approved' ) ;
#240 = DATE_TIME_ROLE ( 'classification_date' ) ;
#241 = ADVANCED_FACE ( 'NONE', ( #9, #292 ), #35, .F. ) ;
#242 = ORIENTED_EDGE ( 'NONE', *, *, #245, .T. ) ;
#243 = CC_DESIGN_PERSON_AND_ORGANIZATION_ASSIGNMENT ( #267, #13, ( #123 ) ) ;
#244 = EDGE_LOOP ( 'NONE', ( #194 ) ) ;
#245 = EDGE_CURVE ( 'NONE', #36, #36, #26, .T. ) ;
#246 = EDGE_LOOP ( 'NONE', ( #41 ) ) ;
#247 = ORIENTED_EDGE ( 'NONE', *, *, #252, .F. ) ;
#248 = APPROVAL_PERSON_ORGANIZATION ( #276, #163, #332 ) ;
#249 = CARTESIAN_POINT ( 'NONE',  ( 0.0000000000000000000, 0.0000000000000000000, 4.000000000000000000 ) ) ;
#250 = COORDINATED_UNIVERSAL_TIME_OFFSET ( 5, 0, .BEHIND. ) ;
#251 = DIRECTION ( 'NONE',  ( 0.0000000000000000000, 0.0000000000000000000, 1.000000000000000000 ) ) ;
#252 = EDGE_CURVE ( 'NONE', #181, #181, #189, .T. ) ;
#253 = CARTESIAN_POINT ( 'NONE',  ( 0.0000000000000000000, 0.0000000000000000000, 0.0000000000000000000 ) ) ;
#254 = FACE_OUTER_BOUND ( 'NONE', #161, .T. ) ;
#255 = CYLINDRICAL_SURFACE ( 'NONE', #262, 0.4060000000000000275 ) ;
#256 = AXIS2_PLACEMENT_3D ( 'NONE', #142, #90, #343 ) ;
#257 = CYLINDRICAL_SURFACE ( 'NONE', #289, 0.5000000000000000000 ) ;
#258 = EDGE_LOOP ( 'NONE', ( #70 ) ) ;
#259 = CARTESIAN_POINT ( 'NONE',  ( 0.1774999999999999911, 0.0000000000000000000, 4.062000000000000277 ) ) ;
#260 = FACE_OUTER_BOUND ( 'NONE', #69, .T. ) ;
#261 = DIRECTION ( 'NONE',  ( 0.0000000000000000000, 0.0000000000000000000, 1.000000000000000000 ) ) ;
#262 = AXIS2_PLACEMENT_3D ( 'NONE', #3, #349, #8 ) ;
#263 = CONICAL_SURFACE ( 'NONE', #155, 0.5000000000001484368, 0.7853981633973015075 ) ;
#264 = CARTESIAN_POINT ( 'NONE',  ( 0.5000000000000000000, 0.0000000000000000000, 3.979999999999999982 ) ) ;
#265 =( CONVERSION_BASED_UNIT ( 'INCH', #39 ) LENGTH_UNIT ( ) NAMED_UNIT ( #164 ) );
#266 = EDGE_LOOP ( 'NONE', ( #20 ) ) ;
#267 = PERSON_AND_ORGANIZATION ( #326, #359 ) ;
#268 = ORIENTED_EDGE ( 'NONE', *, *, #153, .F. ) ;
#269 = LOCAL_TIME ( 17, 34, 7.000000000000000000, #105 ) ;
#270 = DATE_AND_TIME ( #188, #176 ) ;
#271 = AXIS2_PLACEMENT_3D ( 'NONE', #86, #229, #201 ) ;
#272 = PERSON_AND_ORGANIZATION ( #326, #359 ) ;
#273 = DIRECTION ( 'NONE',  ( 1.000000000000000000, 0.0000000000000000000, 0.0000000000000000000 ) ) ;
#274 = DIRECTION ( 'NONE',  ( 1.000000000000000000, 0.0000000000000000000, -0.0000000000000000000 ) ) ;
#275 = EDGE_LOOP ( 'NONE', ( #22 ) ) ;
#276 = PERSON_AND_ORGANIZATION ( #326, #359 ) ;
#277 = DIRECTION ( 'NONE',  ( 1.000000000000000000, 0.0000000000000000000, 0.0000000000000000000 ) ) ;
#278 = DATE_AND_TIME ( #341, #301 ) ;
#279 = EDGE_CURVE ( 'NONE', #357, #357, #323, .T. ) ;
#280 = EDGE_LOOP ( 'NONE', ( #298 ) ) ;
#281 = DIRECTION ( 'NONE',  ( 1.000000000000000000, 0.0000000000000000000, -0.0000000000000000000 ) ) ;
#282 = DIRECTION ( 'NONE',  ( 0.0000000000000000000, 0.0000000000000000000, 1.000000000000000000 ) ) ;
#283 = APPLICATION_CONTEXT ( 'configuration controlled 3d designs of mechanical parts and assemblies' ) ;
#284 = FACE_OUTER_BOUND ( 'NONE', #235, .T. ) ;
#285 = FACE_BOUND ( 'NONE', #266, .T. ) ;
#286 = PLANE ( 'NONE',  #81 ) ;
#287 = VERTEX_POINT ( 'NONE', #259 ) ;
#288 = PRODUCT_DEFINITION_FORMATION_WITH_SPECIFIED_SOURCE ( 'ANY', '', #123, .NOT_KNOWN. ) ;
#289 = AXIS2_PLACEMENT_3D ( 'NONE', #24, #116, #277 ) ;
#290 = AXIS2_PLACEMENT_3D ( 'NONE', #249, #29, #114 ) ;
#291 = CARTESIAN_POINT ( 'NONE',  ( 0.0000000000000000000, 0.0000000000000000000, 0.0000000000000000000 ) ) ;
#292 = FACE_OUTER_BOUND ( 'NONE', #246, .T. ) ;
#293 = CARTESIAN_POINT ( 'NONE',  ( 0.4800000000000125278, 0.0000000000000000000, -1.242990837117239833E-14 ) ) ;
#294 = AXIS2_PLACEMENT_3D ( 'NONE', #119, #251, #222 ) ;
#295 = CARTESIAN_POINT ( 'NONE',  ( 0.4060000000000000275, 0.0000000000000000000, 4.000000000000000000 ) ) ;
#296 = CARTESIAN_POINT ( 'NONE',  ( 0.0000000000000000000, 0.0000000000000000000, 0.0000000000000000000 ) ) ;
#297 = CC_DESIGN_DATE_AND_TIME_ASSIGNMENT ( #270, #17, ( #118 ) ) ;
#298 = ORIENTED_EDGE ( 'NONE', *, *, #145, .F. ) ;
#299 = ORIENTED_EDGE ( 'NONE', *, *, #145, .T. ) ;
#300 = CALENDAR_DATE ( 2021, 9, 2 ) ;
#301 = LOCAL_TIME ( 17, 34, 7.000000000000000000, #196 ) ;
#302 = SECURITY_CLASSIFICATION_LEVEL ( 'unclassified' ) ;
#303 = ORIENTED_EDGE ( 'NONE', *, *, #108, .T. ) ;
#304 = COORDINATED_UNIVERSAL_TIME_OFFSET ( 5, 0, .BEHIND. ) ;
#305 = DATE_AND_TIME ( #364, #30 ) ;
#306 = FACE_OUTER_BOUND ( 'NONE', #216, .T. ) ;
#307 = AXIS2_PLACEMENT_3D ( 'NONE', #376, #57, #172 ) ;
#308 = CARTESIAN_POINT ( 'NONE',  ( 0.0000000000000000000, 0.0000000000000000000, 4.000000000000000000 ) ) ;
#309 = CIRCLE ( 'NONE', #193, 0.1774999999999999911 ) ;
#310 = ORIENTED_EDGE ( 'NONE', *, *, #279, .F. ) ;
#311 = FACE_OUTER_BOUND ( 'NONE', #83, .T. ) ;
#312 = CYLINDRICAL_SURFACE ( 'NONE', #148, 0.1774999999999999911 ) ;
#313 = SECURITY_CLASSIFICATION ( '', '', #302 ) ;
#314 = CYLINDRICAL_SURFACE ( 'NONE', #101, 0.4060000000000000275 ) ;
#315 = MANIFOLD_SOLID_BREP ( 'OFFSET-1-solid1', #324 ) ;
#316 = CARTESIAN_POINT ( 'NONE',  ( 0.0000000000000000000, 0.0000000000000000000, 4.000000000000000000 ) ) ;
#317 = MANIFOLD_SOLID_BREP ( 'SEALING-WASHER-2-solid1', #219 ) ;
#318 = DIRECTION ( 'NONE',  ( 1.000000000000000000, 0.0000000000000000000, 0.0000000000000000000 ) ) ;
#319 = EDGE_CURVE ( 'NONE', #100, #100, #370, .T. ) ;
#320 = FACE_OUTER_BOUND ( 'NONE', #356, .T. ) ;
#321 = CARTESIAN_POINT ( 'NONE',  ( 0.1774999999999999911, 0.0000000000000000000, -0.06199999999999999956 ) ) ;
#322 = CARTESIAN_POINT ( 'NONE',  ( 0.0000000000000000000, 0.0000000000000000000, -1.242990837117239833E-14 ) ) ;
#323 = CIRCLE ( 'NONE', #307, 0.4800000000001517497 ) ;
#324 = CLOSED_SHELL ( 'NONE', ( #62, #213, #75, #208, #231, #34 ) ) ;
#325 = FACE_OUTER_BOUND ( 'NONE', #48, .T. ) ;
#326 = PERSON ( 'UNSPECIFIED', 'UNSPECIFIED', 'UNSPECIFIED', ('UNSPECIFIED'), ('UNSPECIFIED'), ('UNSPECIFIED') ) ;
#327 = EDGE_CURVE ( 'NONE', #128, #128, #96, .T. ) ;
#328 = ADVANCED_FACE ( 'NONE', ( #87, #325 ), #314, .T. ) ;
#329 = VERTEX_POINT ( 'NONE', #295 ) ;
#330 = ORIENTED_EDGE ( 'NONE', *, *, #353, .F. ) ;
#331 = CARTESIAN_POINT ( 'NONE',  ( -0.4800000000001517497, 0.0000000000000000000, 4.000000000000150990 ) ) ;
#332 = APPROVAL_ROLE ( '' ) ;
#333 = PERSON_AND_ORGANIZATION ( #326, #359 ) ;
#334 = AXIS2_PLACEMENT_3D ( 'NONE', #316, #171, #144 ) ;
#335 = ORIENTED_EDGE ( 'NONE', *, *, #167, .F. ) ;
#336 = FACE_BOUND ( 'NONE', #371, .T. ) ;
#337 = ORIENTED_EDGE ( 'NONE', *, *, #108, .F. ) ;
#338 = CLOSED_SHELL ( 'NONE', ( #19, #88, #367, #38 ) ) ;
#339 = CIRCLE ( 'NONE', #290, 0.2500000000000000000 ) ;
#340 = EDGE_LOOP ( 'NONE', ( #82 ) ) ;
#341 = CALENDAR_DATE ( 2021, 9, 2 ) ;
#342 = CARTESIAN_POINT ( 'NONE',  ( 0.0000000000000000000, 0.0000000000000000000, 4.062000000000000277 ) ) ;
#343 = DIRECTION ( 'NONE',  ( 1.000000000000000000, 0.0000000000000000000, 0.0000000000000000000 ) ) ;
#344 = AXIS2_PLACEMENT_3D ( 'NONE', #127, #28, #233 ) ;
#345 = DIRECTION ( 'NONE',  ( 0.0000000000000000000, 0.0000000000000000000, 1.000000000000000000 ) ) ;
#346 = CC_DESIGN_PERSON_AND_ORGANIZATION_ASSIGNMENT ( #272, #365, ( #288 ) ) ;
#347 = FACE_BOUND ( 'NONE', #120, .T. ) ;
#348 = EDGE_LOOP ( 'NONE', ( #369 ) ) ;
#349 = DIRECTION ( 'NONE',  ( 0.0000000000000000000, 0.0000000000000000000, 1.000000000000000000 ) ) ;
#350 = VERTEX_POINT ( 'NONE', #95 ) ;
#351 = DIRECTION ( 'NONE',  ( 1.000000000000000000, 0.0000000000000000000, 0.0000000000000000000 ) ) ;
#352 = CC_DESIGN_SECURITY_CLASSIFICATION ( #313, ( #288 ) ) ;
#353 = EDGE_CURVE ( 'NONE', #72, #72, #37, .T. ) ;
#354 = AXIS2_PLACEMENT_3D ( 'NONE', #322, #150, #318 ) ;
#355 = DIRECTION ( 'NONE',  ( 0.0000000000000000000, 0.0000000000000000000, 1.000000000000000000 ) ) ;
#356 = EDGE_LOOP ( 'NONE', ( #366 ) ) ;
#357 = VERTEX_POINT ( 'NONE', #331 ) ;
#358 = DIRECTION ( 'NONE',  ( 0.0000000000000000000, 0.0000000000000000000, 1.000000000000000000 ) ) ;
#359 = ORGANIZATION ( 'UNSPECIFIED', 'UNSPECIFIED', '' ) ;
#360 = EDGE_CURVE ( 'NONE', #329, #329, #218, .T. ) ;
#361 = CIRCLE ( 'NONE', #177, 0.4060000000000000275 ) ;
#362 = VERTEX_POINT ( 'NONE', #264 ) ;
#363 = APPROVAL_DATE_TIME ( #305, #98 ) ;
#364 = CALENDAR_DATE ( 2021, 9, 2 ) ;
#365 = PERSON_AND_ORGANIZATION_ROLE ( 'creator' ) ;
#366 = ORIENTED_EDGE ( 'NONE', *, *, #122, .T. ) ;
#367 = ADVANCED_FACE ( 'NONE', ( #260, #178 ), #255, .T. ) ;
#368 = CYLINDRICAL_SURFACE ( 'NONE', #112, 0.2500000000000000000 ) ;
#369 = ORIENTED_EDGE ( 'NONE', *, *, #252, .T. ) ;
#370 = CIRCLE ( 'NONE', #76, 0.4060000000000000275 ) ;
#371 = EDGE_LOOP ( 'NONE', ( #303 ) ) ;
#372 = AXIS2_PLACEMENT_3D ( 'NONE', #50, #162, #274 ) ;
#373 = COORDINATED_UNIVERSAL_TIME_OFFSET ( 5, 0, .BEHIND. ) ;
#374 = FACE_BOUND ( 'NONE', #132, .T. ) ;
#375 = DIRECTION ( 'NONE',  ( -0.0000000000000000000, -0.0000000000000000000, -1.000000000000000000 ) ) ;
#376 = CARTESIAN_POINT ( 'NONE',  ( 0.0000000000000000000, 0.0000000000000000000, 4.000000000000150990 ) ) ;
ENDSEC;
END-ISO-10303-21;
