ISO-10303-21;
HEADER;
FILE_DESCRIPTION (( 'STEP AP214' ),
    '1' );
FILE_NAME ('SSP-2016-P10.STEP',
    '2019-03-02T20:18:49',
    ( '' ),
    ( '' ),
    'SwSTEP 2.0',
    'SolidWorks 2018',
    '' );
FILE_SCHEMA (( 'AUTOMOTIVE_DESIGN' ));
ENDSEC;

DATA;
#1 = UNCERTAINTY_MEASURE_WITH_UNIT (LENGTH_MEASURE( 1.000000000000000082E-05 ), #333, 'distance_accuracy_value', 'NONE');
#2 = CARTESIAN_POINT ( 'NONE',  ( 0.0000000000000000000, -0.08000000000000000167, 0.0000000000000000000 ) ) ;
#3 = VERTEX_POINT ( 'NONE', #225 ) ;
#4 = ORIENTED_EDGE ( 'NONE', *, *, #163, .F. ) ;
#5 = AXIS2_PLACEMENT_3D ( 'NONE', #294, #43, #288 ) ;
#6 = LINE ( 'NONE', #278, #142 ) ;
#7 = VECTOR ( 'NONE', #98, 39.37007874015748143 ) ;
#8 = ORIENTED_EDGE ( 'NONE', *, *, #404, .T. ) ;
#9 = CARTESIAN_POINT ( 'NONE',  ( 0.0000000000000000000, 0.0000000000000000000, -2.750000000000000000 ) ) ;
#10 = EDGE_CURVE ( 'NONE', #34, #34, #224, .T. ) ;
#11 = VECTOR ( 'NONE', #155, 39.37007874015748143 ) ;
#12 = SURFACE_SIDE_STYLE ('',( #209 ) ) ;
#13 =( NAMED_UNIT ( * ) PLANE_ANGLE_UNIT ( ) SI_UNIT ( $, .RADIAN. ) );
#14 = DIRECTION ( 'NONE',  ( 0.0000000000000000000, 0.0000000000000000000, -1.000000000000000000 ) ) ;
#15 = LENGTH_MEASURE_WITH_UNIT ( LENGTH_MEASURE( 0.02539999999999999897 ), #83 );
#16 = CYLINDRICAL_SURFACE ( 'NONE', #330, 0.1249999999999999029 ) ;
#17 = ORIENTED_EDGE ( 'NONE', *, *, #411, .F. ) ;
#18 = EDGE_CURVE ( 'NONE', #149, #149, #251, .T. ) ;
#19 = CARTESIAN_POINT ( 'NONE',  ( -6.457200000000000273, 0.0000000000000000000, -2.625000000000000000 ) ) ;
#20 = ORIENTED_EDGE ( 'NONE', *, *, #360, .F. ) ;
#21 = LINE ( 'NONE', #323, #375 ) ;
#22 = EDGE_LOOP ( 'NONE', ( #237 ) ) ;
#23 = EDGE_LOOP ( 'NONE', ( #82 ) ) ;
#24 = CARTESIAN_POINT ( 'NONE',  ( 6.457200000000000273, -0.08000000000000000167, -2.625000000000000000 ) ) ;
#25 = CARTESIAN_POINT ( 'NONE',  ( -6.457200000000000273, -0.08000000000000000167, 2.625000000000000000 ) ) ;
#26 = DIMENSIONAL_EXPONENTS ( 1.000000000000000000, 0.0000000000000000000, 0.0000000000000000000, 0.0000000000000000000, 0.0000000000000000000, 0.0000000000000000000, 0.0000000000000000000 ) ;
#27 = LINE ( 'NONE', #75, #400 ) ;
#28 = CIRCLE ( 'NONE', #119, 0.1249999999999999029 ) ;
#29 = DIRECTION ( 'NONE',  ( 0.0000000000000000000, -1.000000000000000000, 0.0000000000000000000 ) ) ;
#30 = DIRECTION ( 'NONE',  ( -0.0000000000000000000, 1.000000000000000000, 0.0000000000000000000 ) ) ;
#31 = CARTESIAN_POINT ( 'NONE',  ( -7.500000000000000000, -0.08000000000000000167, -3.125000000000000000 ) ) ;
#32 = EDGE_CURVE ( 'NONE', #370, #370, #65, .T. ) ;
#33 = ORIENTED_EDGE ( 'NONE', *, *, #172, .F. ) ;
#34 = VERTEX_POINT ( 'NONE', #112 ) ;
#35 = ORIENTED_EDGE ( 'NONE', *, *, #81, .F. ) ;
#36 = CARTESIAN_POINT ( 'NONE',  ( 0.0000000000000000000, 0.0000000000000000000, -2.625000000000000000 ) ) ;
#37 = DIRECTION ( 'NONE',  ( 0.0000000000000000000, 0.0000000000000000000, 1.000000000000000000 ) ) ;
#38 = CARTESIAN_POINT ( 'NONE',  ( -6.457200000000000273, 0.0000000000000000000, 2.625000000000000000 ) ) ;
#39 = DIMENSIONAL_EXPONENTS ( 1.000000000000000000, 0.0000000000000000000, 0.0000000000000000000, 0.0000000000000000000, 0.0000000000000000000, 0.0000000000000000000, 0.0000000000000000000 ) ;
#40 = CARTESIAN_POINT ( 'NONE',  ( 6.457200000000000273, 0.0000000000000000000, -2.625000000000000000 ) ) ;
#41 = VERTEX_POINT ( 'NONE', #9 ) ;
#42 = ORIENTED_EDGE ( 'NONE', *, *, #10, .F. ) ;
#43 = DIRECTION ( 'NONE',  ( -0.0000000000000000000, 1.000000000000000000, -0.0000000000000000000 ) ) ;
#44 = FILL_AREA_STYLE_COLOUR ( '', #309 ) ;
#45 = AXIS2_PLACEMENT_3D ( 'NONE', #2, #30, #63 ) ;
#46 = CARTESIAN_POINT ( 'NONE',  ( 6.457200000000000273, -0.08000000000000000167, -2.750000000000000000 ) ) ;
#47 = EDGE_LOOP ( 'NONE', ( #314 ) ) ;
#48 = APPLICATION_CONTEXT ( 'automotive_design' ) ;
#49 = ORIENTED_EDGE ( 'NONE', *, *, #172, .T. ) ;
#50 =( NAMED_UNIT ( * ) SI_UNIT ( $, .STERADIAN. ) SOLID_ANGLE_UNIT ( ) );
#51 = CYLINDRICAL_SURFACE ( 'NONE', #53, 0.1249999999999999029 ) ;
#52 = CYLINDRICAL_SURFACE ( 'NONE', #346, 0.1249999999999999029 ) ;
#53 = AXIS2_PLACEMENT_3D ( 'NONE', #40, #358, #257 ) ;
#54 = MECHANICAL_DESIGN_GEOMETRIC_PRESENTATION_REPRESENTATION (  '', ( #293 ), #77 ) ;
#55 = PRESENTATION_STYLE_ASSIGNMENT (( #148 ) ) ;
#56 = EDGE_LOOP ( 'NONE', ( #298, #33, #227, #306 ) ) ;
#57 = FACE_BOUND ( 'NONE', #137, .T. ) ;
#58 = DIRECTION ( 'NONE',  ( 0.0000000000000000000, -1.000000000000000000, 0.0000000000000000000 ) ) ;
#59 = EDGE_LOOP ( 'NONE', ( #158 ) ) ;
#60 = DIRECTION ( 'NONE',  ( 0.0000000000000000000, 0.0000000000000000000, -1.000000000000000000 ) ) ;
#61 = VECTOR ( 'NONE', #128, 39.37007874015748143 ) ;
#62 = ADVANCED_FACE ( 'NONE', ( #402, #401 ), #52, .F. ) ;
#63 = DIRECTION ( 'NONE',  ( 0.0000000000000000000, -0.0000000000000000000, 1.000000000000000000 ) ) ;
#64 = AXIS2_PLACEMENT_3D ( 'NONE', #159, #282, #161 ) ;
#65 = CIRCLE ( 'NONE', #226, 0.1249999999999999029 ) ;
#66 = ORIENTED_EDGE ( 'NONE', *, *, #220, .T. ) ;
#67 = CARTESIAN_POINT ( 'NONE',  ( 7.500000000000000000, 0.0000000000000000000, 3.125000000000000000 ) ) ;
#68 = PRODUCT_DEFINITION_FORMATION_WITH_SPECIFIED_SOURCE ( 'ANY', '', #97, .NOT_KNOWN. ) ;
#69 = CARTESIAN_POINT ( 'NONE',  ( 7.500000000000000000, -0.08000000000000000167, 3.125000000000000000 ) ) ;
#70 = ADVANCED_FACE ( 'NONE', ( #153 ), #275, .T. ) ;
#71 = FACE_OUTER_BOUND ( 'NONE', #118, .T. ) ;
#72 = PLANE ( 'NONE',  #311 ) ;
#73 = EDGE_CURVE ( 'NONE', #141, #403, #332, .T. ) ;
#74 = DIRECTION ( 'NONE',  ( 0.0000000000000000000, 0.0000000000000000000, -1.000000000000000000 ) ) ;
#75 = CARTESIAN_POINT ( 'NONE',  ( -7.500000000000000000, -0.08000000000000000167, -3.125000000000000000 ) ) ;
#76 = EDGE_LOOP ( 'NONE', ( #273 ) ) ;
#77 =( GEOMETRIC_REPRESENTATION_CONTEXT ( 3 ) GLOBAL_UNCERTAINTY_ASSIGNED_CONTEXT ( ( #242 ) ) GLOBAL_UNIT_ASSIGNED_CONTEXT ( ( #169, #13, #50 ) ) REPRESENTATION_CONTEXT ( 'NONE', 'WORKASPACE' ) );
#78 = ORIENTED_EDGE ( 'NONE', *, *, #183, .T. ) ;
#79 = ORIENTED_EDGE ( 'NONE', *, *, #351, .F. ) ;
#80 =( NAMED_UNIT ( * ) SI_UNIT ( $, .STERADIAN. ) SOLID_ANGLE_UNIT ( ) );
#81 = EDGE_CURVE ( 'NONE', #193, #193, #28, .T. ) ;
#82 = ORIENTED_EDGE ( 'NONE', *, *, #234, .F. ) ;
#83 =( LENGTH_UNIT ( ) NAMED_UNIT ( * ) SI_UNIT ( $, .METRE. ) );
#84 = FACE_OUTER_BOUND ( 'NONE', #369, .T. ) ;
#85 = EDGE_LOOP ( 'NONE', ( #256 ) ) ;
#86 = DIRECTION ( 'NONE',  ( 0.0000000000000000000, 0.0000000000000000000, -1.000000000000000000 ) ) ;
#87 = FACE_BOUND ( 'NONE', #47, .T. ) ;
#88 = ORIENTED_EDGE ( 'NONE', *, *, #92, .T. ) ;
#89 = CIRCLE ( 'NONE', #287, 0.1249999999999999029 ) ;
#90 = CARTESIAN_POINT ( 'NONE',  ( 0.0000000000000000000, 0.0000000000000000000, -2.625000000000000000 ) ) ;
#91 = DIRECTION ( 'NONE',  ( 0.0000000000000000000, 0.0000000000000000000, 1.000000000000000000 ) ) ;
#92 = EDGE_CURVE ( 'NONE', #130, #130, #336, .T. ) ;
#93 = DIRECTION ( 'NONE',  ( 0.0000000000000000000, 0.0000000000000000000, -1.000000000000000000 ) ) ;
#94 = ORIENTED_EDGE ( 'NONE', *, *, #391, .T. ) ;
#95 = DIRECTION ( 'NONE',  ( 0.0000000000000000000, -0.0000000000000000000, 1.000000000000000000 ) ) ;
#96 = CARTESIAN_POINT ( 'NONE',  ( 0.0000000000000000000, -0.08000000000000000167, -2.625000000000000000 ) ) ;
#97 = PRODUCT ( 'SSP-2016-P10', 'SSP-2016-P10', '', ( #173 ) ) ;
#98 = DIRECTION ( 'NONE',  ( 1.000000000000000000, 0.0000000000000000000, -0.0000000000000000000 ) ) ;
#99 = EDGE_CURVE ( 'NONE', #403, #327, #244, .T. ) ;
#100 = DIRECTION ( 'NONE',  ( -1.000000000000000000, -0.0000000000000000000, -0.0000000000000000000 ) ) ;
#101 = EDGE_LOOP ( 'NONE', ( #171 ) ) ;
#102 = ORIENTED_EDGE ( 'NONE', *, *, #220, .F. ) ;
#103 = DIRECTION ( 'NONE',  ( -0.0000000000000000000, 0.0000000000000000000, -1.000000000000000000 ) ) ;
#104 = ADVANCED_FACE ( 'NONE', ( #150, #345 ), #326, .F. ) ;
#105 = VECTOR ( 'NONE', #100, 39.37007874015748143 ) ;
#106 = EDGE_LOOP ( 'NONE', ( #160, #396, #285, #208 ) ) ;
#107 = CARTESIAN_POINT ( 'NONE',  ( 6.457200000000000273, 0.0000000000000000000, -2.750000000000000000 ) ) ;
#108 = CARTESIAN_POINT ( 'NONE',  ( 6.457200000000000273, -0.08000000000000000167, 2.500000000000000000 ) ) ;
#109 = EDGE_LOOP ( 'NONE', ( #4, #20, #131, #296 ) ) ;
#110 = VERTEX_POINT ( 'NONE', #264 ) ;
#111 = ORIENTED_EDGE ( 'NONE', *, *, #368, .F. ) ;
#112 = CARTESIAN_POINT ( 'NONE',  ( -6.457200000000000273, 0.0000000000000000000, -2.750000000000000000 ) ) ;
#113 = SURFACE_STYLE_FILL_AREA ( #322 ) ;
#114 = APPLICATION_PROTOCOL_DEFINITION ( 'draft international standard', 'automotive_design', 1998, #308 ) ;
#115 = EDGE_LOOP ( 'NONE', ( #377 ) ) ;
#116 = LINE ( 'NONE', #133, #105 ) ;
#117 =( GEOMETRIC_REPRESENTATION_CONTEXT ( 3 ) GLOBAL_UNCERTAINTY_ASSIGNED_CONTEXT ( ( #236 ) ) GLOBAL_UNIT_ASSIGNED_CONTEXT ( ( #363, #258, #80 ) ) REPRESENTATION_CONTEXT ( 'NONE', 'WORKASPACE' ) );
#118 = EDGE_LOOP ( 'NONE', ( #337 ) ) ;
#119 = AXIS2_PLACEMENT_3D ( 'NONE', #24, #240, #60 ) ;
#120 = EDGE_LOOP ( 'NONE', ( #8 ) ) ;
#121 = ADVANCED_FACE ( 'NONE', ( #255 ), #286, .T. ) ;
#122 = FACE_OUTER_BOUND ( 'NONE', #56, .T. ) ;
#123 = EDGE_LOOP ( 'NONE', ( #354 ) ) ;
#124 = FACE_OUTER_BOUND ( 'NONE', #109, .T. ) ;
#125 = ADVANCED_FACE ( 'NONE', ( #310, #179 ), #170, .F. ) ;
#126 =( GEOMETRIC_REPRESENTATION_CONTEXT ( 3 ) GLOBAL_UNCERTAINTY_ASSIGNED_CONTEXT ( ( #1 ) ) GLOBAL_UNIT_ASSIGNED_CONTEXT ( ( #333, #196, #265 ) ) REPRESENTATION_CONTEXT ( 'NONE', 'WORKASPACE' ) );
#127 = DIRECTION ( 'NONE',  ( 0.0000000000000000000, 0.0000000000000000000, -1.000000000000000000 ) ) ;
#128 = DIRECTION ( 'NONE',  ( 1.000000000000000000, 0.0000000000000000000, 0.0000000000000000000 ) ) ;
#129 = ORIENTED_EDGE ( 'NONE', *, *, #263, .T. ) ;
#130 = VERTEX_POINT ( 'NONE', #108 ) ;
#131 = ORIENTED_EDGE ( 'NONE', *, *, #325, .F. ) ;
#132 = AXIS2_PLACEMENT_3D ( 'NONE', #145, #228, #201 ) ;
#133 = CARTESIAN_POINT ( 'NONE',  ( 0.0000000000000000000, 0.0000000000000000000, -3.125000000000000000 ) ) ;
#134 = DIRECTION ( 'NONE',  ( -0.0000000000000000000, 1.000000000000000000, -0.0000000000000000000 ) ) ;
#135 = CARTESIAN_POINT ( 'NONE',  ( 7.500000000000000000, 0.0000000000000000000, 3.125000000000000000 ) ) ;
#136 = LINE ( 'NONE', #135, #319 ) ;
#137 = EDGE_LOOP ( 'NONE', ( #245 ) ) ;
#138 = CARTESIAN_POINT ( 'NONE',  ( -7.500000000000000000, -0.08000000000000000167, 3.125000000000000000 ) ) ;
#139 = DIRECTION ( 'NONE',  ( 0.0000000000000000000, -0.0000000000000000000, 1.000000000000000000 ) ) ;
#140 = VERTEX_POINT ( 'NONE', #335 ) ;
#141 = VERTEX_POINT ( 'NONE', #184 ) ;
#142 = VECTOR ( 'NONE', #315, 39.37007874015748143 ) ;
#143 = CARTESIAN_POINT ( 'NONE',  ( -6.457200000000000273, -0.08000000000000000167, 2.500000000000000000 ) ) ;
#144 = EDGE_LOOP ( 'NONE', ( #215 ) ) ;
#145 = CARTESIAN_POINT ( 'NONE',  ( 0.0000000000000000000, 0.0000000000000000000, 2.625000000000000000 ) ) ;
#146 =( LENGTH_UNIT ( ) NAMED_UNIT ( * ) SI_UNIT ( $, .METRE. ) );
#147 = PRODUCT_DEFINITION_CONTEXT ( 'detailed design', #308, 'design' ) ;
#148 = SURFACE_STYLE_USAGE ( .BOTH. , #12 ) ;
#149 = VERTEX_POINT ( 'NONE', #143 ) ;
#150 = FACE_OUTER_BOUND ( 'NONE', #394, .T. ) ;
#151 = COLOUR_RGB ( '',0.7921568627450980005, 0.8196078431372548767, 0.9333333333333333481 ) ;
#152 = AXIS2_PLACEMENT_3D ( 'NONE', #90, #269, #383 ) ;
#153 = FACE_OUTER_BOUND ( 'NONE', #210, .T. ) ;
#154 = EDGE_LOOP ( 'NONE', ( #66 ) ) ;
#155 = DIRECTION ( 'NONE',  ( 0.0000000000000000000, -1.000000000000000000, -0.0000000000000000000 ) ) ;
#156 = FACE_BOUND ( 'NONE', #198, .T. ) ;
#157 = VERTEX_POINT ( 'NONE', #381 ) ;
#158 = ORIENTED_EDGE ( 'NONE', *, *, #339, .T. ) ;
#159 = CARTESIAN_POINT ( 'NONE',  ( 6.457200000000000273, 0.0000000000000000000, 2.625000000000000000 ) ) ;
#160 = ORIENTED_EDGE ( 'NONE', *, *, #263, .F. ) ;
#161 = DIRECTION ( 'NONE',  ( 0.0000000000000000000, 0.0000000000000000000, -1.000000000000000000 ) ) ;
#162 = DIRECTION ( 'NONE',  ( 0.0000000000000000000, 0.0000000000000000000, -1.000000000000000000 ) ) ;
#163 = EDGE_CURVE ( 'NONE', #412, #413, #239, .T. ) ;
#164 = DIRECTION ( 'NONE',  ( 0.0000000000000000000, -1.000000000000000000, 0.0000000000000000000 ) ) ;
#165 = CYLINDRICAL_SURFACE ( 'NONE', #64, 0.1249999999999999029 ) ;
#166 = ORIENTED_EDGE ( 'NONE', *, *, #73, .F. ) ;
#167 = PLANE ( 'NONE',  #399 ) ;
#168 = ORIENTED_EDGE ( 'NONE', *, *, #368, .T. ) ;
#169 =( CONVERSION_BASED_UNIT ( 'INCH', #197 ) LENGTH_UNIT ( ) NAMED_UNIT ( #39 ) );
#170 = CYLINDRICAL_SURFACE ( 'NONE', #247, 0.1249999999999999029 ) ;
#171 = ORIENTED_EDGE ( 'NONE', *, *, #18, .F. ) ;
#172 = EDGE_CURVE ( 'NONE', #141, #157, #232, .T. ) ;
#173 = PRODUCT_CONTEXT ( 'NONE', #48, 'mechanical' ) ;
#174 = CIRCLE ( 'NONE', #132, 0.1249999999999999029 ) ;
#175 = DIRECTION ( 'NONE',  ( -0.0000000000000000000, 1.000000000000000000, -0.0000000000000000000 ) ) ;
#176 = VERTEX_POINT ( 'NONE', #31 ) ;
#177 = ADVANCED_FACE ( 'NONE', ( #267, #71 ), #165, .F. ) ;
#178 = CARTESIAN_POINT ( 'NONE',  ( -7.500000000000000000, 0.0000000000000000000, 3.125000000000000000 ) ) ;
#179 = FACE_OUTER_BOUND ( 'NONE', #123, .T. ) ;
#180 = EDGE_LOOP ( 'NONE', ( #88 ) ) ;
#181 = PLANE ( 'NONE',  #385 ) ;
#182 = CARTESIAN_POINT ( 'NONE',  ( -7.500000000000000000, 0.0000000000000000000, -3.125000000000000000 ) ) ;
#183 = EDGE_CURVE ( 'NONE', #320, #141, #304, .T. ) ;
#184 = CARTESIAN_POINT ( 'NONE',  ( -7.500000000000000000, 0.0000000000000000000, 3.125000000000000000 ) ) ;
#185 = LENGTH_MEASURE_WITH_UNIT ( LENGTH_MEASURE( 0.02539999999999999897 ), #146 );
#186 = DIRECTION ( 'NONE',  ( 0.0000000000000000000, -1.000000000000000000, 0.0000000000000000000 ) ) ;
#187 = ORIENTED_EDGE ( 'NONE', *, *, #360, .T. ) ;
#188 = EDGE_LOOP ( 'NONE', ( #17, #384, #200, #111 ) ) ;
#189 = DIRECTION ( 'NONE',  ( 0.0000000000000000000, 0.0000000000000000000, -1.000000000000000000 ) ) ;
#190 = CARTESIAN_POINT ( 'NONE',  ( -7.500000000000000000, 0.0000000000000000000, 3.125000000000000000 ) ) ;
#191 = ADVANCED_FACE ( 'NONE', ( #235, #378, #389, #291, #207, #343, #355 ), #415, .F. ) ;
#192 = DIRECTION ( 'NONE',  ( 0.0000000000000000000, -1.000000000000000000, 0.0000000000000000000 ) ) ;
#193 = VERTEX_POINT ( 'NONE', #46 ) ;
#194 = DIRECTION ( 'NONE',  ( 0.0000000000000000000, 0.0000000000000000000, -1.000000000000000000 ) ) ;
#195 = AXIS2_PLACEMENT_3D ( 'NONE', #19, #373, #86 ) ;
#196 =( NAMED_UNIT ( * ) PLANE_ANGLE_UNIT ( ) SI_UNIT ( $, .RADIAN. ) );
#197 = LENGTH_MEASURE_WITH_UNIT ( LENGTH_MEASURE( 0.02539999999999999897 ), #364 );
#198 = EDGE_LOOP ( 'NONE', ( #348 ) ) ;
#199 = LINE ( 'NONE', #280, #290 ) ;
#200 = ORIENTED_EDGE ( 'NONE', *, *, #99, .F. ) ;
#201 = DIRECTION ( 'NONE',  ( 0.0000000000000000000, 0.0000000000000000000, -1.000000000000000000 ) ) ;
#202 = AXIS2_PLACEMENT_3D ( 'NONE', #96, #248, #162 ) ;
#203 = FILL_AREA_STYLE ('',( #398 ) ) ;
#204 = CARTESIAN_POINT ( 'NONE',  ( 0.0000000000000000000, 0.0000000000000000000, 2.500000000000000000 ) ) ;
#205 = DIRECTION ( 'NONE',  ( 0.0000000000000000000, -1.000000000000000000, 0.0000000000000000000 ) ) ;
#206 = CIRCLE ( 'NONE', #334, 0.1249999999999999029 ) ;
#207 = FACE_BOUND ( 'NONE', #260, .T. ) ;
#208 = ORIENTED_EDGE ( 'NONE', *, *, #411, .T. ) ;
#209 = SURFACE_STYLE_FILL_AREA ( #203 ) ;
#210 = EDGE_LOOP ( 'NONE', ( #166, #386, #129, #168 ) ) ;
#211 = ADVANCED_FACE ( 'NONE', ( #124 ), #181, .T. ) ;
#212 = FACE_BOUND ( 'NONE', #120, .T. ) ;
#213 = DIRECTION ( 'NONE',  ( 0.0000000000000000000, 0.0000000000000000000, -1.000000000000000000 ) ) ;
#214 = DIRECTION ( 'NONE',  ( -0.0000000000000000000, -1.000000000000000000, -0.0000000000000000000 ) ) ;
#215 = ORIENTED_EDGE ( 'NONE', *, *, #234, .T. ) ;
#216 = AXIS2_PLACEMENT_3D ( 'NONE', #356, #134, #74 ) ;
#217 = ORIENTED_EDGE ( 'NONE', *, *, #81, .T. ) ;
#218 = CARTESIAN_POINT ( 'NONE',  ( -7.500000000000000000, 0.0000000000000000000, 0.0000000000000000000 ) ) ;
#219 = DIRECTION ( 'NONE',  ( 0.0000000000000000000, 0.0000000000000000000, -1.000000000000000000 ) ) ;
#220 = EDGE_CURVE ( 'NONE', #110, #110, #367, .T. ) ;
#221 = ADVANCED_FACE ( 'NONE', ( #277, #84 ), #16, .F. ) ;
#222 = VECTOR ( 'NONE', #230, 39.37007874015748143 ) ;
#223 = DIRECTION ( 'NONE',  ( 1.000000000000000000, 0.0000000000000000000, -0.0000000000000000000 ) ) ;
#224 = CIRCLE ( 'NONE', #195, 0.1249999999999999029 ) ;
#225 = CARTESIAN_POINT ( 'NONE',  ( -6.457200000000000273, -0.08000000000000000167, -2.750000000000000000 ) ) ;
#226 = AXIS2_PLACEMENT_3D ( 'NONE', #341, #58, #241 ) ;
#227 = ORIENTED_EDGE ( 'NONE', *, *, #73, .T. ) ;
#228 = DIRECTION ( 'NONE',  ( 0.0000000000000000000, -1.000000000000000000, 0.0000000000000000000 ) ) ;
#229 = CARTESIAN_POINT ( 'NONE',  ( 0.0000000000000000000, 0.0000000000000000000, 0.0000000000000000000 ) ) ;
#230 = DIRECTION ( 'NONE',  ( -1.000000000000000000, 0.0000000000000000000, -0.0000000000000000000 ) ) ;
#231 = FACE_OUTER_BOUND ( 'NONE', #85, .T. ) ;
#232 = LINE ( 'NONE', #246, #61 ) ;
#233 = AXIS2_PLACEMENT_3D ( 'NONE', #229, #365, #359 ) ;
#234 = EDGE_CURVE ( 'NONE', #41, #41, #89, .T. ) ;
#235 = FACE_BOUND ( 'NONE', #307, .T. ) ;
#236 = UNCERTAINTY_MEASURE_WITH_UNIT (LENGTH_MEASURE( 1.000000000000000082E-05 ), #363, 'distance_accuracy_value', 'NONE');
#237 = ORIENTED_EDGE ( 'NONE', *, *, #351, .T. ) ;
#238 = EDGE_CURVE ( 'NONE', #412, #320, #116, .T. ) ;
#239 = LINE ( 'NONE', #249, #321 ) ;
#240 = DIRECTION ( 'NONE',  ( -0.0000000000000000000, 1.000000000000000000, -0.0000000000000000000 ) ) ;
#241 = DIRECTION ( 'NONE',  ( 0.0000000000000000000, 0.0000000000000000000, -1.000000000000000000 ) ) ;
#242 = UNCERTAINTY_MEASURE_WITH_UNIT (LENGTH_MEASURE( 1.000000000000000082E-05 ), #169, 'distance_accuracy_value', 'NONE');
#243 = DIRECTION ( 'NONE',  ( 1.000000000000000000, -0.0000000000000000000, 0.0000000000000000000 ) ) ;
#244 = LINE ( 'NONE', #374, #7 ) ;
#245 = ORIENTED_EDGE ( 'NONE', *, *, #32, .T. ) ;
#246 = CARTESIAN_POINT ( 'NONE',  ( 0.0000000000000000000, 0.0000000000000000000, 3.125000000000000000 ) ) ;
#247 = AXIS2_PLACEMENT_3D ( 'NONE', #317, #29, #93 ) ;
#248 = DIRECTION ( 'NONE',  ( -0.0000000000000000000, 1.000000000000000000, -0.0000000000000000000 ) ) ;
#249 = CARTESIAN_POINT ( 'NONE',  ( 7.500000000000000000, 0.0000000000000000000, -3.125000000000000000 ) ) ;
#250 = EDGE_LOOP ( 'NONE', ( #79 ) ) ;
#251 = CIRCLE ( 'NONE', #316, 0.1249999999999999029 ) ;
#252 = DIRECTION ( 'NONE',  ( 0.0000000000000000000, 0.0000000000000000000, -1.000000000000000000 ) ) ;
#253 = MECHANICAL_DESIGN_GEOMETRIC_PRESENTATION_REPRESENTATION (  '', ( #268 ), #126 ) ;
#254 = CARTESIAN_POINT ( 'NONE',  ( 6.457200000000000273, 0.0000000000000000000, -2.625000000000000000 ) ) ;
#255 = FACE_OUTER_BOUND ( 'NONE', #106, .T. ) ;
#256 = ORIENTED_EDGE ( 'NONE', *, *, #372, .F. ) ;
#257 = DIRECTION ( 'NONE',  ( 0.0000000000000000000, 0.0000000000000000000, -1.000000000000000000 ) ) ;
#258 =( NAMED_UNIT ( * ) PLANE_ANGLE_UNIT ( ) SI_UNIT ( $, .RADIAN. ) );
#259 = APPLICATION_PROTOCOL_DEFINITION ( 'draft international standard', 'automotive_design', 1998, #48 ) ;
#260 = EDGE_LOOP ( 'NONE', ( #94 ) ) ;
#261 = CIRCLE ( 'NONE', #349, 0.1249999999999999029 ) ;
#262 = CARTESIAN_POINT ( 'NONE',  ( -6.457200000000000273, 0.0000000000000000000, 2.500000000000000000 ) ) ;
#263 = EDGE_CURVE ( 'NONE', #320, #176, #6, .T. ) ;
#264 = CARTESIAN_POINT ( 'NONE',  ( 0.0000000000000000000, -0.08000000000000000167, -2.750000000000000000 ) ) ;
#265 =( NAMED_UNIT ( * ) SI_UNIT ( $, .STERADIAN. ) SOLID_ANGLE_UNIT ( ) );
#266 = PRESENTATION_STYLE_ASSIGNMENT (( #397 ) ) ;
#267 = FACE_OUTER_BOUND ( 'NONE', #115, .T. ) ;
#268 = STYLED_ITEM ( 'NONE', ( #266 ), #409 ) ;
#269 = DIRECTION ( 'NONE',  ( 0.0000000000000000000, -1.000000000000000000, 0.0000000000000000000 ) ) ;
#270 = ORIENTED_EDGE ( 'NONE', *, *, #238, .T. ) ;
#271 = CIRCLE ( 'NONE', #216, 0.1249999999999999029 ) ;
#272 = DIRECTION ( 'NONE',  ( 0.0000000000000000000, 0.0000000000000000000, -1.000000000000000000 ) ) ;
#273 = ORIENTED_EDGE ( 'NONE', *, *, #18, .T. ) ;
#274 = PRODUCT_RELATED_PRODUCT_CATEGORY ( 'part', '', ( #97 ) ) ;
#275 = PLANE ( 'NONE',  #305 ) ;
#276 = CIRCLE ( 'NONE', #5, 0.1249999999999999029 ) ;
#277 = FACE_OUTER_BOUND ( 'NONE', #250, .T. ) ;
#278 = CARTESIAN_POINT ( 'NONE',  ( -7.500000000000000000, 0.0000000000000000000, -3.125000000000000000 ) ) ;
#279 = EDGE_CURVE ( 'NONE', #327, #413, #199, .T. ) ;
#280 = CARTESIAN_POINT ( 'NONE',  ( 7.500000000000000000, -0.08000000000000000167, 3.125000000000000000 ) ) ;
#281 = CARTESIAN_POINT ( 'NONE',  ( 7.500000000000000000, 0.0000000000000000000, -3.125000000000000000 ) ) ;
#282 = DIRECTION ( 'NONE',  ( 0.0000000000000000000, -1.000000000000000000, 0.0000000000000000000 ) ) ;
#283 = ORIENTED_EDGE ( 'NONE', *, *, #404, .F. ) ;
#284 = VERTEX_POINT ( 'NONE', #262 ) ;
#285 = ORIENTED_EDGE ( 'NONE', *, *, #163, .T. ) ;
#286 = PLANE ( 'NONE',  #376 ) ;
#287 = AXIS2_PLACEMENT_3D ( 'NONE', #36, #164, #189 ) ;
#288 = DIRECTION ( 'NONE',  ( 0.0000000000000000000, 0.0000000000000000000, -1.000000000000000000 ) ) ;
#289 = CARTESIAN_POINT ( 'NONE',  ( 0.0000000000000000000, 0.0000000000000000000, 0.0000000000000000000 ) ) ;
#290 = VECTOR ( 'NONE', #127, 39.37007874015748143 ) ;
#291 = FACE_BOUND ( 'NONE', #180, .T. ) ;
#292 = DIRECTION ( 'NONE',  ( -0.0000000000000000000, 1.000000000000000000, 0.0000000000000000000 ) ) ;
#293 = STYLED_ITEM ( 'NONE', ( #55 ), #299 ) ;
#294 = CARTESIAN_POINT ( 'NONE',  ( -6.457200000000000273, -0.08000000000000000167, -2.625000000000000000 ) ) ;
#295 = AXIS2_PLACEMENT_3D ( 'NONE', #408, #380, #313 ) ;
#296 = ORIENTED_EDGE ( 'NONE', *, *, #279, .T. ) ;
#297 = LINE ( 'NONE', #318, #222 ) ;
#298 = ORIENTED_EDGE ( 'NONE', *, *, #325, .T. ) ;
#299 = ADVANCED_BREP_SHAPE_REPRESENTATION ( 'SSP-2016-P10', ( #409, #233 ), #117 ) ;
#300 = CARTESIAN_POINT ( 'NONE',  ( 6.457200000000000273, 0.0000000000000000000, 2.500000000000000000 ) ) ;
#301 = CARTESIAN_POINT ( 'NONE',  ( 7.500000000000000000, -0.08000000000000000167, -3.125000000000000000 ) ) ;
#302 = CLOSED_SHELL ( 'NONE', ( #344, #350, #104, #221, #177, #62, #125, #312, #70, #121, #211, #191 ) ) ;
#303 = PRESENTATION_LAYER_ASSIGNMENT (  '', '', ( #268 ) ) ;
#304 = LINE ( 'NONE', #218, #395 ) ;
#305 = AXIS2_PLACEMENT_3D ( 'NONE', #405, #340, #91 ) ;
#306 = ORIENTED_EDGE ( 'NONE', *, *, #99, .T. ) ;
#307 = EDGE_LOOP ( 'NONE', ( #217 ) ) ;
#308 = APPLICATION_CONTEXT ( 'automotive_design' ) ;
#309 = COLOUR_RGB ( '',0.7921568627450980005, 0.8196078431372548767, 0.9333333333333333481 ) ;
#310 = FACE_OUTER_BOUND ( 'NONE', #101, .T. ) ;
#311 = AXIS2_PLACEMENT_3D ( 'NONE', #289, #292, #139 ) ;
#312 = ADVANCED_FACE ( 'NONE', ( #122 ), #167, .T. ) ;
#313 = DIRECTION ( 'NONE',  ( 0.0000000000000000000, 0.0000000000000000000, -1.000000000000000000 ) ) ;
#314 = ORIENTED_EDGE ( 'NONE', *, *, #10, .T. ) ;
#315 = DIRECTION ( 'NONE',  ( -0.0000000000000000000, -1.000000000000000000, 0.0000000000000000000 ) ) ;
#316 = AXIS2_PLACEMENT_3D ( 'NONE', #25, #175, #272 ) ;
#317 = CARTESIAN_POINT ( 'NONE',  ( -6.457200000000000273, 0.0000000000000000000, 2.625000000000000000 ) ) ;
#318 = CARTESIAN_POINT ( 'NONE',  ( 7.500000000000000000, -0.08000000000000000167, -3.125000000000000000 ) ) ;
#319 = VECTOR ( 'NONE', #390, 39.37007874015748143 ) ;
#320 = VERTEX_POINT ( 'NONE', #182 ) ;
#321 = VECTOR ( 'NONE', #214, 39.37007874015748143 ) ;
#322 = FILL_AREA_STYLE ('',( #44 ) ) ;
#323 = CARTESIAN_POINT ( 'NONE',  ( 7.500000000000000000, 0.0000000000000000000, 0.0000000000000000000 ) ) ;
#324 = DIRECTION ( 'NONE',  ( 0.0000000000000000000, 0.0000000000000000000, 1.000000000000000000 ) ) ;
#325 = EDGE_CURVE ( 'NONE', #327, #157, #136, .T. ) ;
#326 = CYLINDRICAL_SURFACE ( 'NONE', #152, 0.1249999999999999029 ) ;
#327 = VERTEX_POINT ( 'NONE', #69 ) ;
#328 = SURFACE_SIDE_STYLE ('',( #113 ) ) ;
#329 = PRODUCT_DEFINITION ( 'UNKNOWN', '', #68, #147 ) ;
#330 = AXIS2_PLACEMENT_3D ( 'NONE', #387, #186, #219 ) ;
#331 = SHAPE_DEFINITION_REPRESENTATION ( #382, #299 ) ;
#332 = LINE ( 'NONE', #178, #11 ) ;
#333 =( CONVERSION_BASED_UNIT ( 'INCH', #15 ) LENGTH_UNIT ( ) NAMED_UNIT ( #26 ) );
#334 = AXIS2_PLACEMENT_3D ( 'NONE', #254, #392, #252 ) ;
#335 = CARTESIAN_POINT ( 'NONE',  ( 0.0000000000000000000, -0.08000000000000000167, 2.500000000000000000 ) ) ;
#336 = CIRCLE ( 'NONE', #295, 0.1249999999999999029 ) ;
#337 = ORIENTED_EDGE ( 'NONE', *, *, #32, .F. ) ;
#338 = CARTESIAN_POINT ( 'NONE',  ( 0.0000000000000000000, 0.0000000000000000000, 2.625000000000000000 ) ) ;
#339 = EDGE_CURVE ( 'NONE', #284, #284, #261, .T. ) ;
#340 = DIRECTION ( 'NONE',  ( -1.000000000000000000, 0.0000000000000000000, 0.0000000000000000000 ) ) ;
#341 = CARTESIAN_POINT ( 'NONE',  ( 6.457200000000000273, 0.0000000000000000000, 2.625000000000000000 ) ) ;
#342 = FACE_OUTER_BOUND ( 'NONE', #407, .T. ) ;
#343 = FACE_BOUND ( 'NONE', #76, .T. ) ;
#344 = ADVANCED_FACE ( 'NONE', ( #156, #406, #87, #57, #212, #366, #342 ), #72, .T. ) ;
#345 = FACE_OUTER_BOUND ( 'NONE', #23, .T. ) ;
#346 = AXIS2_PLACEMENT_3D ( 'NONE', #338, #205, #14 ) ;
#347 = EDGE_LOOP ( 'NONE', ( #283 ) ) ;
#348 = ORIENTED_EDGE ( 'NONE', *, *, #372, .T. ) ;
#349 = AXIS2_PLACEMENT_3D ( 'NONE', #38, #192, #194 ) ;
#350 = ADVANCED_FACE ( 'NONE', ( #353, #231 ), #51, .F. ) ;
#351 = EDGE_CURVE ( 'NONE', #3, #3, #276, .T. ) ;
#352 = CARTESIAN_POINT ( 'NONE',  ( 7.500000000000000000, 0.0000000000000000000, -3.125000000000000000 ) ) ;
#353 = FACE_OUTER_BOUND ( 'NONE', #361, .T. ) ;
#354 = ORIENTED_EDGE ( 'NONE', *, *, #339, .F. ) ;
#355 = FACE_OUTER_BOUND ( 'NONE', #188, .T. ) ;
#356 = CARTESIAN_POINT ( 'NONE',  ( 0.0000000000000000000, -0.08000000000000000167, 2.625000000000000000 ) ) ;
#357 = PRESENTATION_LAYER_ASSIGNMENT (  '', '', ( #293 ) ) ;
#358 = DIRECTION ( 'NONE',  ( 0.0000000000000000000, -1.000000000000000000, 0.0000000000000000000 ) ) ;
#359 = DIRECTION ( 'NONE',  ( 1.000000000000000000, 0.0000000000000000000, 0.0000000000000000000 ) ) ;
#360 = EDGE_CURVE ( 'NONE', #157, #412, #21, .T. ) ;
#361 = EDGE_LOOP ( 'NONE', ( #35 ) ) ;
#362 = ORIENTED_EDGE ( 'NONE', *, *, #391, .F. ) ;
#363 =( CONVERSION_BASED_UNIT ( 'INCH', #185 ) LENGTH_UNIT ( ) NAMED_UNIT ( #379 ) );
#364 =( LENGTH_UNIT ( ) NAMED_UNIT ( * ) SI_UNIT ( $, .METRE. ) );
#365 = DIRECTION ( 'NONE',  ( 0.0000000000000000000, 0.0000000000000000000, 1.000000000000000000 ) ) ;
#366 = FACE_BOUND ( 'NONE', #59, .T. ) ;
#367 = CIRCLE ( 'NONE', #202, 0.1249999999999999029 ) ;
#368 = EDGE_CURVE ( 'NONE', #176, #403, #27, .T. ) ;
#369 = EDGE_LOOP ( 'NONE', ( #42 ) ) ;
#370 = VERTEX_POINT ( 'NONE', #300 ) ;
#371 = EDGE_LOOP ( 'NONE', ( #362 ) ) ;
#372 = EDGE_CURVE ( 'NONE', #388, #388, #206, .T. ) ;
#373 = DIRECTION ( 'NONE',  ( 0.0000000000000000000, -1.000000000000000000, 0.0000000000000000000 ) ) ;
#374 = CARTESIAN_POINT ( 'NONE',  ( -7.500000000000000000, -0.08000000000000000167, 3.125000000000000000 ) ) ;
#375 = VECTOR ( 'NONE', #103, 39.37007874015748143 ) ;
#376 = AXIS2_PLACEMENT_3D ( 'NONE', #281, #410, #414 ) ;
#377 = ORIENTED_EDGE ( 'NONE', *, *, #92, .F. ) ;
#378 = FACE_BOUND ( 'NONE', #154, .T. ) ;
#379 = DIMENSIONAL_EXPONENTS ( 1.000000000000000000, 0.0000000000000000000, 0.0000000000000000000, 0.0000000000000000000, 0.0000000000000000000, 0.0000000000000000000, 0.0000000000000000000 ) ;
#380 = DIRECTION ( 'NONE',  ( -0.0000000000000000000, 1.000000000000000000, -0.0000000000000000000 ) ) ;
#381 = CARTESIAN_POINT ( 'NONE',  ( 7.500000000000000000, 0.0000000000000000000, 3.125000000000000000 ) ) ;
#382 = PRODUCT_DEFINITION_SHAPE ( 'NONE', 'NONE',  #329 ) ;
#383 = DIRECTION ( 'NONE',  ( 0.0000000000000000000, 0.0000000000000000000, -1.000000000000000000 ) ) ;
#384 = ORIENTED_EDGE ( 'NONE', *, *, #279, .F. ) ;
#385 = AXIS2_PLACEMENT_3D ( 'NONE', #67, #243, #213 ) ;
#386 = ORIENTED_EDGE ( 'NONE', *, *, #183, .F. ) ;
#387 = CARTESIAN_POINT ( 'NONE',  ( -6.457200000000000273, 0.0000000000000000000, -2.625000000000000000 ) ) ;
#388 = VERTEX_POINT ( 'NONE', #107 ) ;
#389 = FACE_BOUND ( 'NONE', #22, .T. ) ;
#390 = DIRECTION ( 'NONE',  ( -0.0000000000000000000, 1.000000000000000000, 0.0000000000000000000 ) ) ;
#391 = EDGE_CURVE ( 'NONE', #140, #140, #271, .T. ) ;
#392 = DIRECTION ( 'NONE',  ( 0.0000000000000000000, -1.000000000000000000, 0.0000000000000000000 ) ) ;
#393 = VERTEX_POINT ( 'NONE', #204 ) ;
#394 = EDGE_LOOP ( 'NONE', ( #102 ) ) ;
#395 = VECTOR ( 'NONE', #95, 39.37007874015748143 ) ;
#396 = ORIENTED_EDGE ( 'NONE', *, *, #238, .F. ) ;
#397 = SURFACE_STYLE_USAGE ( .BOTH. , #328 ) ;
#398 = FILL_AREA_STYLE_COLOUR ( '', #151 ) ;
#399 = AXIS2_PLACEMENT_3D ( 'NONE', #190, #37, #223 ) ;
#400 = VECTOR ( 'NONE', #324, 39.37007874015748143 ) ;
#401 = FACE_OUTER_BOUND ( 'NONE', #347, .T. ) ;
#402 = FACE_OUTER_BOUND ( 'NONE', #371, .T. ) ;
#403 = VERTEX_POINT ( 'NONE', #138 ) ;
#404 = EDGE_CURVE ( 'NONE', #393, #393, #174, .T. ) ;
#405 = CARTESIAN_POINT ( 'NONE',  ( -7.500000000000000000, 0.0000000000000000000, -3.125000000000000000 ) ) ;
#406 = FACE_BOUND ( 'NONE', #144, .T. ) ;
#407 = EDGE_LOOP ( 'NONE', ( #78, #49, #187, #270 ) ) ;
#408 = CARTESIAN_POINT ( 'NONE',  ( 6.457200000000000273, -0.08000000000000000167, 2.625000000000000000 ) ) ;
#409 = MANIFOLD_SOLID_BREP ( 'Imported1', #302 ) ;
#410 = DIRECTION ( 'NONE',  ( 0.0000000000000000000, 0.0000000000000000000, -1.000000000000000000 ) ) ;
#411 = EDGE_CURVE ( 'NONE', #413, #176, #297, .T. ) ;
#412 = VERTEX_POINT ( 'NONE', #352 ) ;
#413 = VERTEX_POINT ( 'NONE', #301 ) ;
#414 = DIRECTION ( 'NONE',  ( -1.000000000000000000, 0.0000000000000000000, -0.0000000000000000000 ) ) ;
#415 = PLANE ( 'NONE',  #45 ) ;
ENDSEC;
END-ISO-10303-21;
