ISO-10303-21;
HEADER;
FILE_DESCRIPTION (( 'STEP AP214' ),
    '1' );
FILE_NAME ('SSP-2424-P10.STEP',
    '2019-03-02T20:22:15',
    ( '' ),
    ( '' ),
    'SwSTEP 2.0',
    'SolidWorks 2018',
    '' );
FILE_SCHEMA (( 'AUTOMOTIVE_DESIGN' ));
ENDSEC;

DATA;
#1 = CARTESIAN_POINT ( 'NONE',  ( 0.0000000000000000000, 0.0000000000000000000, 3.937499999999999556 ) ) ;
#2 = CARTESIAN_POINT ( 'NONE',  ( -10.87500000000000000, -0.07470000000000000251, -3.937499999999999556 ) ) ;
#3 = LINE ( 'NONE', #31, #253 ) ;
#4 = ADVANCED_FACE ( 'NONE', ( #42, #255 ), #408, .F. ) ;
#5 = DIRECTION ( 'NONE',  ( 0.0000000000000000000, 1.000000000000000000, 0.0000000000000000000 ) ) ;
#6 = LINE ( 'NONE', #331, #143 ) ;
#7 = FACE_OUTER_BOUND ( 'NONE', #170, .T. ) ;
#8 = EDGE_LOOP ( 'NONE', ( #335 ) ) ;
#9 = VERTEX_POINT ( 'NONE', #173 ) ;
#10 = AXIS2_PLACEMENT_3D ( 'NONE', #286, #122, #349 ) ;
#11 = SURFACE_STYLE_USAGE ( .BOTH. , #44 ) ;
#12 = CARTESIAN_POINT ( 'NONE',  ( -9.000000000000000000, 0.0000000000000000000, 3.375000000000000000 ) ) ;
#13 = CARTESIAN_POINT ( 'NONE',  ( 0.0000000000000000000, -0.07470000000000000251, 3.500000000000000000 ) ) ;
#14 = LENGTH_MEASURE_WITH_UNIT ( LENGTH_MEASURE( 0.02539999999999999897 ), #232 );
#15 = CIRCLE ( 'NONE', #98, 0.1249999999999999029 ) ;
#16 = ORIENTED_EDGE ( 'NONE', *, *, #216, .T. ) ;
#17 = EDGE_CURVE ( 'NONE', #120, #120, #394, .T. ) ;
#18 = SURFACE_STYLE_USAGE ( .BOTH. , #50 ) ;
#19 = DIMENSIONAL_EXPONENTS ( 1.000000000000000000, 0.0000000000000000000, 0.0000000000000000000, 0.0000000000000000000, 0.0000000000000000000, 0.0000000000000000000, 0.0000000000000000000 ) ;
#20 = VERTEX_POINT ( 'NONE', #397 ) ;
#21 = DIRECTION ( 'NONE',  ( 0.0000000000000000000, 0.0000000000000000000, 1.000000000000000000 ) ) ;
#22 = CARTESIAN_POINT ( 'NONE',  ( -10.87500000000000000, 0.0000000000000000000, 3.937499999999999556 ) ) ;
#23 = ORIENTED_EDGE ( 'NONE', *, *, #282, .T. ) ;
#24 = VERTEX_POINT ( 'NONE', #56 ) ;
#25 = DIRECTION ( 'NONE',  ( 0.0000000000000000000, 0.0000000000000000000, 1.000000000000000000 ) ) ;
#26 = DIRECTION ( 'NONE',  ( -0.0000000000000000000, -1.000000000000000000, -0.0000000000000000000 ) ) ;
#27 = DIRECTION ( 'NONE',  ( 0.0000000000000000000, 1.000000000000000000, 0.0000000000000000000 ) ) ;
#28 = ORIENTED_EDGE ( 'NONE', *, *, #311, .F. ) ;
#29 = EDGE_LOOP ( 'NONE', ( #372 ) ) ;
#30 = ORIENTED_EDGE ( 'NONE', *, *, #17, .T. ) ;
#31 = CARTESIAN_POINT ( 'NONE',  ( -10.87500000000000000, -0.07470000000000000251, -3.937499999999999556 ) ) ;
#32 =( GEOMETRIC_REPRESENTATION_CONTEXT ( 3 ) GLOBAL_UNCERTAINTY_ASSIGNED_CONTEXT ( ( #151 ) ) GLOBAL_UNIT_ASSIGNED_CONTEXT ( ( #343, #49, #403 ) ) REPRESENTATION_CONTEXT ( 'NONE', 'WORKASPACE' ) );
#33 = CARTESIAN_POINT ( 'NONE',  ( -9.000000000000000000, -0.07470000000000000251, -3.375000000000000000 ) ) ;
#34 = EDGE_CURVE ( 'NONE', #87, #87, #15, .T. ) ;
#35 = DIRECTION ( 'NONE',  ( -1.000000000000000000, -0.0000000000000000000, -0.0000000000000000000 ) ) ;
#36 = LINE ( 'NONE', #137, #285 ) ;
#37 = ORIENTED_EDGE ( 'NONE', *, *, #210, .T. ) ;
#38 = DIRECTION ( 'NONE',  ( 0.0000000000000000000, 1.000000000000000000, 0.0000000000000000000 ) ) ;
#39 = DIRECTION ( 'NONE',  ( 0.0000000000000000000, 1.000000000000000000, 0.0000000000000000000 ) ) ;
#40 = FILL_AREA_STYLE ('',( #100 ) ) ;
#41 = FACE_OUTER_BOUND ( 'NONE', #279, .T. ) ;
#42 = FACE_OUTER_BOUND ( 'NONE', #222, .T. ) ;
#43 = ORIENTED_EDGE ( 'NONE', *, *, #127, .F. ) ;
#44 = SURFACE_SIDE_STYLE ('',( #263 ) ) ;
#45 = EDGE_CURVE ( 'NONE', #332, #332, #234, .T. ) ;
#46 = DIRECTION ( 'NONE',  ( -0.0000000000000000000, -1.000000000000000000, -0.0000000000000000000 ) ) ;
#47 = FACE_OUTER_BOUND ( 'NONE', #8, .T. ) ;
#48 = EDGE_LOOP ( 'NONE', ( #51 ) ) ;
#49 =( NAMED_UNIT ( * ) PLANE_ANGLE_UNIT ( ) SI_UNIT ( $, .RADIAN. ) );
#50 = SURFACE_SIDE_STYLE ('',( #168 ) ) ;
#51 = ORIENTED_EDGE ( 'NONE', *, *, #383, .T. ) ;
#52 = FILL_AREA_STYLE ('',( #241 ) ) ;
#53 = DIRECTION ( 'NONE',  ( 1.000000000000000000, 0.0000000000000000000, 0.0000000000000000000 ) ) ;
#54 = UNCERTAINTY_MEASURE_WITH_UNIT (LENGTH_MEASURE( 1.000000000000000082E-05 ), #308, 'distance_accuracy_value', 'NONE');
#55 = AXIS2_PLACEMENT_3D ( 'NONE', #69, #165, #225 ) ;
#56 = CARTESIAN_POINT ( 'NONE',  ( 10.87500000000000000, 0.0000000000000000000, 3.937499999999999556 ) ) ;
#57 = FACE_OUTER_BOUND ( 'NONE', #157, .T. ) ;
#58 = EDGE_CURVE ( 'NONE', #9, #9, #93, .T. ) ;
#59 = ORIENTED_EDGE ( 'NONE', *, *, #395, .F. ) ;
#60 = ADVANCED_FACE ( 'NONE', ( #312 ), #84, .T. ) ;
#61 = DIRECTION ( 'NONE',  ( -0.0000000000000000000, 1.000000000000000000, 0.0000000000000000000 ) ) ;
#62 = VERTEX_POINT ( 'NONE', #269 ) ;
#63 = CIRCLE ( 'NONE', #117, 0.1249999999999999029 ) ;
#64 = EDGE_LOOP ( 'NONE', ( #211 ) ) ;
#65 = EDGE_LOOP ( 'NONE', ( #292 ) ) ;
#66 = DIRECTION ( 'NONE',  ( 0.0000000000000000000, 0.0000000000000000000, 1.000000000000000000 ) ) ;
#67 = DIRECTION ( 'NONE',  ( 0.0000000000000000000, 1.000000000000000000, 0.0000000000000000000 ) ) ;
#68 = VERTEX_POINT ( 'NONE', #13 ) ;
#69 = CARTESIAN_POINT ( 'NONE',  ( 0.0000000000000000000, 0.0000000000000000000, 3.375000000000000000 ) ) ;
#70 = CYLINDRICAL_SURFACE ( 'NONE', #214, 0.1249999999999999029 ) ;
#71 = EDGE_LOOP ( 'NONE', ( #199 ) ) ;
#72 = CARTESIAN_POINT ( 'NONE',  ( 0.0000000000000000000, -0.07470000000000000251, -3.250000000000000000 ) ) ;
#73 = VERTEX_POINT ( 'NONE', #247 ) ;
#74 = STYLED_ITEM ( 'NONE', ( #393 ), #379 ) ;
#75 = ORIENTED_EDGE ( 'NONE', *, *, #356, .F. ) ;
#76 = ORIENTED_EDGE ( 'NONE', *, *, #17, .F. ) ;
#77 = CLOSED_SHELL ( 'NONE', ( #380, #180, #316, #4, #299, #360, #283, #85, #215, #129, #60, #185 ) ) ;
#78 = ORIENTED_EDGE ( 'NONE', *, *, #127, .T. ) ;
#79 = APPLICATION_CONTEXT ( 'automotive_design' ) ;
#80 = DIRECTION ( 'NONE',  ( 0.0000000000000000000, 1.000000000000000000, 0.0000000000000000000 ) ) ;
#81 = EDGE_CURVE ( 'NONE', #233, #233, #351, .T. ) ;
#82 = FACE_BOUND ( 'NONE', #111, .T. ) ;
#83 = ORIENTED_EDGE ( 'NONE', *, *, #395, .T. ) ;
#84 = PLANE ( 'NONE',  #123 ) ;
#85 = ADVANCED_FACE ( 'NONE', ( #323 ), #193, .T. ) ;
#86 = CARTESIAN_POINT ( 'NONE',  ( 9.000000000000000000, 0.0000000000000000000, -3.375000000000000000 ) ) ;
#87 = VERTEX_POINT ( 'NONE', #208 ) ;
#88 = DIRECTION ( 'NONE',  ( 0.0000000000000000000, -0.0000000000000000000, 1.000000000000000000 ) ) ;
#89 = FACE_BOUND ( 'NONE', #319, .T. ) ;
#90 = ORIENTED_EDGE ( 'NONE', *, *, #373, .T. ) ;
#91 = DIRECTION ( 'NONE',  ( 1.000000000000000000, 0.0000000000000000000, -0.0000000000000000000 ) ) ;
#92 = DIRECTION ( 'NONE',  ( -0.0000000000000000000, -1.000000000000000000, -0.0000000000000000000 ) ) ;
#93 = CIRCLE ( 'NONE', #119, 0.1249999999999999029 ) ;
#94 = CARTESIAN_POINT ( 'NONE',  ( -9.000000000000000000, 0.0000000000000000000, 3.375000000000000000 ) ) ;
#95 = AXIS2_PLACEMENT_3D ( 'NONE', #12, #46, #274 ) ;
#96 = ADVANCED_BREP_SHAPE_REPRESENTATION ( 'SSP-2424-P10', ( #379, #280 ), #32 ) ;
#97 = CARTESIAN_POINT ( 'NONE',  ( 9.000000000000000000, 0.0000000000000000000, -3.375000000000000000 ) ) ;
#98 = AXIS2_PLACEMENT_3D ( 'NONE', #377, #217, #21 ) ;
#99 = DIRECTION ( 'NONE',  ( 0.0000000000000000000, 1.000000000000000000, 0.0000000000000000000 ) ) ;
#100 = FILL_AREA_STYLE_COLOUR ( '', #109 ) ;
#101 = ORIENTED_EDGE ( 'NONE', *, *, #164, .F. ) ;
#102 = CARTESIAN_POINT ( 'NONE',  ( 10.87500000000000000, -0.07470000000000000251, 3.937499999999999556 ) ) ;
#103 = DIRECTION ( 'NONE',  ( 0.0000000000000000000, -1.000000000000000000, -0.0000000000000000000 ) ) ;
#104 = EDGE_LOOP ( 'NONE', ( #305, #404, #313, #364 ) ) ;
#105 = ORIENTED_EDGE ( 'NONE', *, *, #267, .F. ) ;
#106 = EDGE_CURVE ( 'NONE', #352, #271, #203, .T. ) ;
#107 = DIRECTION ( 'NONE',  ( 0.0000000000000000000, -0.0000000000000000000, 1.000000000000000000 ) ) ;
#108 = AXIS2_PLACEMENT_3D ( 'NONE', #22, #295, #152 ) ;
#109 = COLOUR_RGB ( '',0.7921568627450980005, 0.8196078431372548767, 0.9333333333333333481 ) ;
#110 = LINE ( 'NONE', #382, #375 ) ;
#111 = EDGE_LOOP ( 'NONE', ( #358 ) ) ;
#112 = PRODUCT_DEFINITION_CONTEXT ( 'detailed design', #281, 'design' ) ;
#113 = FACE_OUTER_BOUND ( 'NONE', #334, .T. ) ;
#114 = VECTOR ( 'NONE', #26, 39.37007874015748143 ) ;
#115 = EDGE_LOOP ( 'NONE', ( #184 ) ) ;
#116 = PRODUCT_CONTEXT ( 'NONE', #79, 'mechanical' ) ;
#117 = AXIS2_PLACEMENT_3D ( 'NONE', #226, #39, #266 ) ;
#118 = APPLICATION_PROTOCOL_DEFINITION ( 'draft international standard', 'automotive_design', 1998, #281 ) ;
#119 = AXIS2_PLACEMENT_3D ( 'NONE', #86, #92, #25 ) ;
#120 = VERTEX_POINT ( 'NONE', #72 ) ;
#121 = EDGE_LOOP ( 'NONE', ( #37 ) ) ;
#122 = DIRECTION ( 'NONE',  ( -0.0000000000000000000, -1.000000000000000000, -0.0000000000000000000 ) ) ;
#123 = AXIS2_PLACEMENT_3D ( 'NONE', #256, #325, #159 ) ;
#124 = ORIENTED_EDGE ( 'NONE', *, *, #373, .F. ) ;
#125 = EDGE_LOOP ( 'NONE', ( #105 ) ) ;
#126 = CARTESIAN_POINT ( 'NONE',  ( -10.87500000000000000, 0.0000000000000000000, -3.937499999999999556 ) ) ;
#127 = EDGE_CURVE ( 'NONE', #386, #24, #110, .T. ) ;
#128 = DIRECTION ( 'NONE',  ( -0.0000000000000000000, -1.000000000000000000, -0.0000000000000000000 ) ) ;
#129 = ADVANCED_FACE ( 'NONE', ( #363 ), #187, .T. ) ;
#130 = FACE_BOUND ( 'NONE', #213, .T. ) ;
#131 = ORIENTED_EDGE ( 'NONE', *, *, #249, .T. ) ;
#132 = DIRECTION ( 'NONE',  ( 0.0000000000000000000, 0.0000000000000000000, -1.000000000000000000 ) ) ;
#133 = AXIS2_PLACEMENT_3D ( 'NONE', #248, #257, #320 ) ;
#134 = DIMENSIONAL_EXPONENTS ( 1.000000000000000000, 0.0000000000000000000, 0.0000000000000000000, 0.0000000000000000000, 0.0000000000000000000, 0.0000000000000000000, 0.0000000000000000000 ) ;
#135 = CARTESIAN_POINT ( 'NONE',  ( 9.000000000000000000, 0.0000000000000000000, 3.375000000000000000 ) ) ;
#136 = CARTESIAN_POINT ( 'NONE',  ( 0.0000000000000000000, 0.0000000000000000000, 3.375000000000000000 ) ) ;
#137 = CARTESIAN_POINT ( 'NONE',  ( -10.87500000000000000, 0.0000000000000000000, 0.0000000000000000000 ) ) ;
#138 = CIRCLE ( 'NONE', #399, 0.1249999999999999029 ) ;
#139 = EDGE_LOOP ( 'NONE', ( #124, #229, #287, #16 ) ) ;
#140 = DIRECTION ( 'NONE',  ( 0.0000000000000000000, -0.0000000000000000000, 1.000000000000000000 ) ) ;
#141 = PLANE ( 'NONE',  #176 ) ;
#142 = CYLINDRICAL_SURFACE ( 'NONE', #236, 0.1249999999999999029 ) ;
#143 = VECTOR ( 'NONE', #300, 39.37007874015748143 ) ;
#144 = VERTEX_POINT ( 'NONE', #2 ) ;
#145 = ORIENTED_EDGE ( 'NONE', *, *, #34, .T. ) ;
#146 = APPLICATION_PROTOCOL_DEFINITION ( 'draft international standard', 'automotive_design', 1998, #79 ) ;
#147 = DIRECTION ( 'NONE',  ( 0.0000000000000000000, 0.0000000000000000000, 1.000000000000000000 ) ) ;
#148 = FACE_BOUND ( 'NONE', #48, .T. ) ;
#149 = EDGE_LOOP ( 'NONE', ( #309, #294, #43, #131 ) ) ;
#150 = PRESENTATION_LAYER_ASSIGNMENT (  '', '', ( #74 ) ) ;
#151 = UNCERTAINTY_MEASURE_WITH_UNIT (LENGTH_MEASURE( 1.000000000000000082E-05 ), #343, 'distance_accuracy_value', 'NONE');
#152 = DIRECTION ( 'NONE',  ( 1.000000000000000000, 0.0000000000000000000, -0.0000000000000000000 ) ) ;
#153 = CARTESIAN_POINT ( 'NONE',  ( 0.0000000000000000000, 0.0000000000000000000, -3.375000000000000000 ) ) ;
#154 = FACE_BOUND ( 'NONE', #205, .T. ) ;
#155 = VECTOR ( 'NONE', #132, 39.37007874015748143 ) ;
#156 = ORIENTED_EDGE ( 'NONE', *, *, #194, .F. ) ;
#157 = EDGE_LOOP ( 'NONE', ( #59 ) ) ;
#158 = CARTESIAN_POINT ( 'NONE',  ( 10.87500000000000000, 0.0000000000000000000, -3.937499999999999556 ) ) ;
#159 = DIRECTION ( 'NONE',  ( 0.0000000000000000000, 0.0000000000000000000, -1.000000000000000000 ) ) ;
#160 = CARTESIAN_POINT ( 'NONE',  ( 0.0000000000000000000, 0.0000000000000000000, -3.937499999999999556 ) ) ;
#161 = PRESENTATION_STYLE_ASSIGNMENT (( #18 ) ) ;
#162 = CARTESIAN_POINT ( 'NONE',  ( 10.87500000000000000, 0.0000000000000000000, 0.0000000000000000000 ) ) ;
#163 = LINE ( 'NONE', #1, #188 ) ;
#164 = EDGE_CURVE ( 'NONE', #73, #24, #163, .T. ) ;
#165 = DIRECTION ( 'NONE',  ( 0.0000000000000000000, 1.000000000000000000, 0.0000000000000000000 ) ) ;
#166 = CARTESIAN_POINT ( 'NONE',  ( 10.87500000000000000, 0.0000000000000000000, -3.937499999999999556 ) ) ;
#167 = VERTEX_POINT ( 'NONE', #340 ) ;
#168 = SURFACE_STYLE_FILL_AREA ( #52 ) ;
#169 = VECTOR ( 'NONE', #353, 39.37007874015748143 ) ;
#170 = EDGE_LOOP ( 'NONE', ( #392, #324, #405, #344 ) ) ;
#171 = CARTESIAN_POINT ( 'NONE',  ( 10.87500000000000000, -0.07470000000000000251, 3.937499999999999556 ) ) ;
#172 = EDGE_LOOP ( 'NONE', ( #239 ) ) ;
#173 = CARTESIAN_POINT ( 'NONE',  ( 9.000000000000000000, 0.0000000000000000000, -3.250000000000000000 ) ) ;
#174 = AXIS2_PLACEMENT_3D ( 'NONE', #411, #321, #290 ) ;
#175 = FACE_BOUND ( 'NONE', #178, .T. ) ;
#176 = AXIS2_PLACEMENT_3D ( 'NONE', #370, #369, #107 ) ;
#177 = FACE_OUTER_BOUND ( 'NONE', #64, .T. ) ;
#178 = EDGE_LOOP ( 'NONE', ( #204 ) ) ;
#179 = EDGE_CURVE ( 'NONE', #376, #386, #366, .T. ) ;
#180 = ADVANCED_FACE ( 'NONE', ( #177, #347 ), #333, .F. ) ;
#181 = DIRECTION ( 'NONE',  ( 0.0000000000000000000, 1.000000000000000000, 0.0000000000000000000 ) ) ;
#182 = VERTEX_POINT ( 'NONE', #230 ) ;
#183 = ORIENTED_EDGE ( 'NONE', *, *, #311, .T. ) ;
#184 = ORIENTED_EDGE ( 'NONE', *, *, #210, .F. ) ;
#185 = ADVANCED_FACE ( 'NONE', ( #175, #148, #221, #89, #385, #82, #7 ), #219, .F. ) ;
#186 = SHAPE_DEFINITION_REPRESENTATION ( #359, #96 ) ;
#187 = PLANE ( 'NONE',  #133 ) ;
#188 = VECTOR ( 'NONE', #251, 39.37007874015748143 ) ;
#189 = VERTEX_POINT ( 'NONE', #126 ) ;
#190 = DIRECTION ( 'NONE',  ( -0.0000000000000000000, -1.000000000000000000, -0.0000000000000000000 ) ) ;
#191 = AXIS2_PLACEMENT_3D ( 'NONE', #136, #128, #195 ) ;
#192 = FACE_BOUND ( 'NONE', #304, .T. ) ;
#193 = PLANE ( 'NONE',  #108 ) ;
#194 = EDGE_CURVE ( 'NONE', #189, #144, #212, .T. ) ;
#195 = DIRECTION ( 'NONE',  ( 0.0000000000000000000, 0.0000000000000000000, 1.000000000000000000 ) ) ;
#196 = DIRECTION ( 'NONE',  ( 0.0000000000000000000, 0.0000000000000000000, 1.000000000000000000 ) ) ;
#197 = VECTOR ( 'NONE', #361, 39.37007874015748143 ) ;
#198 = AXIS2_PLACEMENT_3D ( 'NONE', #400, #272, #337 ) ;
#199 = ORIENTED_EDGE ( 'NONE', *, *, #383, .F. ) ;
#200 = DIRECTION ( 'NONE',  ( 0.0000000000000000000, 0.0000000000000000000, 1.000000000000000000 ) ) ;
#201 = CARTESIAN_POINT ( 'NONE',  ( 0.0000000000000000000, 0.0000000000000000000, -3.250000000000000000 ) ) ;
#202 = VECTOR ( 'NONE', #103, 39.37007874015748143 ) ;
#203 = LINE ( 'NONE', #158, #114 ) ;
#204 = ORIENTED_EDGE ( 'NONE', *, *, #275, .T. ) ;
#205 = EDGE_LOOP ( 'NONE', ( #328 ) ) ;
#206 = CARTESIAN_POINT ( 'NONE',  ( -10.87500000000000000, 0.0000000000000000000, 3.937499999999999556 ) ) ;
#207 = AXIS2_PLACEMENT_3D ( 'NONE', #220, #61, #88 ) ;
#208 = CARTESIAN_POINT ( 'NONE',  ( 9.000000000000000000, 0.0000000000000000000, 3.500000000000000000 ) ) ;
#209 = FACE_OUTER_BOUND ( 'NONE', #104, .T. ) ;
#210 = EDGE_CURVE ( 'NONE', #284, #284, #138, .T. ) ;
#211 = ORIENTED_EDGE ( 'NONE', *, *, #275, .F. ) ;
#212 = LINE ( 'NONE', #357, #169 ) ;
#213 = EDGE_LOOP ( 'NONE', ( #145 ) ) ;
#214 = AXIS2_PLACEMENT_3D ( 'NONE', #94, #5, #303 ) ;
#215 = ADVANCED_FACE ( 'NONE', ( #244 ), #414, .T. ) ;
#216 = EDGE_CURVE ( 'NONE', #144, #376, #3, .T. ) ;
#217 = DIRECTION ( 'NONE',  ( -0.0000000000000000000, -1.000000000000000000, -0.0000000000000000000 ) ) ;
#218 = DIRECTION ( 'NONE',  ( 0.0000000000000000000, 0.0000000000000000000, 1.000000000000000000 ) ) ;
#219 = PLANE ( 'NONE',  #207 ) ;
#220 = CARTESIAN_POINT ( 'NONE',  ( 0.0000000000000000000, -0.07470000000000000251, 0.0000000000000000000 ) ) ;
#221 = FACE_BOUND ( 'NONE', #265, .T. ) ;
#222 = EDGE_LOOP ( 'NONE', ( #76 ) ) ;
#223 = DIRECTION ( 'NONE',  ( 0.0000000000000000000, 0.0000000000000000000, 1.000000000000000000 ) ) ;
#224 = MECHANICAL_DESIGN_GEOMETRIC_PRESENTATION_REPRESENTATION (  '', ( #298 ), #258 ) ;
#225 = DIRECTION ( 'NONE',  ( 0.0000000000000000000, 0.0000000000000000000, 1.000000000000000000 ) ) ;
#226 = CARTESIAN_POINT ( 'NONE',  ( 9.000000000000000000, -0.07470000000000000251, -3.375000000000000000 ) ) ;
#227 = CIRCLE ( 'NONE', #191, 0.1249999999999999029 ) ;
#228 = AXIS2_PLACEMENT_3D ( 'NONE', #410, #27, #66 ) ;
#229 = ORIENTED_EDGE ( 'NONE', *, *, #415, .F. ) ;
#230 = CARTESIAN_POINT ( 'NONE',  ( 9.000000000000000000, -0.07470000000000000251, -3.250000000000000000 ) ) ;
#231 = AXIS2_PLACEMENT_3D ( 'NONE', #297, #99, #390 ) ;
#232 =( LENGTH_UNIT ( ) NAMED_UNIT ( * ) SI_UNIT ( $, .METRE. ) );
#233 = VERTEX_POINT ( 'NONE', #365 ) ;
#234 = CIRCLE ( 'NONE', #307, 0.1249999999999999029 ) ;
#235 = CARTESIAN_POINT ( 'NONE',  ( -9.000000000000000000, 0.0000000000000000000, 3.500000000000000000 ) ) ;
#236 = AXIS2_PLACEMENT_3D ( 'NONE', #135, #330, #200 ) ;
#237 =( LENGTH_UNIT ( ) NAMED_UNIT ( * ) SI_UNIT ( $, .METRE. ) );
#238 = LINE ( 'NONE', #162, #197 ) ;
#239 = ORIENTED_EDGE ( 'NONE', *, *, #45, .T. ) ;
#240 = EDGE_LOOP ( 'NONE', ( #156, #254, #242, #23 ) ) ;
#241 = FILL_AREA_STYLE_COLOUR ( '', #338 ) ;
#242 = ORIENTED_EDGE ( 'NONE', *, *, #106, .T. ) ;
#243 = CARTESIAN_POINT ( 'NONE',  ( 0.0000000000000000000, 0.0000000000000000000, -3.375000000000000000 ) ) ;
#244 = FACE_OUTER_BOUND ( 'NONE', #139, .T. ) ;
#245 = CARTESIAN_POINT ( 'NONE',  ( 0.0000000000000000000, -0.07470000000000000251, -3.375000000000000000 ) ) ;
#246 = PRODUCT_DEFINITION_FORMATION_WITH_SPECIFIED_SOURCE ( 'ANY', '', #354, .NOT_KNOWN. ) ;
#247 = CARTESIAN_POINT ( 'NONE',  ( -10.87500000000000000, 0.0000000000000000000, 3.937499999999999556 ) ) ;
#248 = CARTESIAN_POINT ( 'NONE',  ( 10.87500000000000000, 0.0000000000000000000, -3.937499999999999556 ) ) ;
#249 = EDGE_CURVE ( 'NONE', #386, #271, #412, .T. ) ;
#250 =( NAMED_UNIT ( * ) SI_UNIT ( $, .STERADIAN. ) SOLID_ANGLE_UNIT ( ) );
#251 = DIRECTION ( 'NONE',  ( 1.000000000000000000, 0.0000000000000000000, 0.0000000000000000000 ) ) ;
#252 = FACE_OUTER_BOUND ( 'NONE', #381, .T. ) ;
#253 = VECTOR ( 'NONE', #196, 39.37007874015748143 ) ;
#254 = ORIENTED_EDGE ( 'NONE', *, *, #259, .F. ) ;
#255 = FACE_OUTER_BOUND ( 'NONE', #115, .T. ) ;
#256 = CARTESIAN_POINT ( 'NONE',  ( 10.87500000000000000, 0.0000000000000000000, 3.937499999999999556 ) ) ;
#257 = DIRECTION ( 'NONE',  ( 0.0000000000000000000, 0.0000000000000000000, -1.000000000000000000 ) ) ;
#258 =( GEOMETRIC_REPRESENTATION_CONTEXT ( 3 ) GLOBAL_UNCERTAINTY_ASSIGNED_CONTEXT ( ( #260 ) ) GLOBAL_UNIT_ASSIGNED_CONTEXT ( ( #345, #409, #250 ) ) REPRESENTATION_CONTEXT ( 'NONE', 'WORKASPACE' ) );
#259 = EDGE_CURVE ( 'NONE', #352, #189, #339, .T. ) ;
#260 = UNCERTAINTY_MEASURE_WITH_UNIT (LENGTH_MEASURE( 1.000000000000000082E-05 ), #345, 'distance_accuracy_value', 'NONE');
#261 = CARTESIAN_POINT ( 'NONE',  ( 10.87500000000000000, -0.07470000000000000251, -3.937499999999999556 ) ) ;
#262 = PRESENTATION_LAYER_ASSIGNMENT (  '', '', ( #298 ) ) ;
#263 = SURFACE_STYLE_FILL_AREA ( #40 ) ;
#264 = VECTOR ( 'NONE', #91, 39.37007874015748143 ) ;
#265 = EDGE_LOOP ( 'NONE', ( #30 ) ) ;
#266 = DIRECTION ( 'NONE',  ( 0.0000000000000000000, 0.0000000000000000000, 1.000000000000000000 ) ) ;
#267 = EDGE_CURVE ( 'NONE', #20, #20, #227, .T. ) ;
#268 = CARTESIAN_POINT ( 'NONE',  ( -10.87500000000000000, -0.07470000000000000251, 3.937499999999999556 ) ) ;
#269 = CARTESIAN_POINT ( 'NONE',  ( -9.000000000000000000, -0.07470000000000000251, 3.500000000000000000 ) ) ;
#270 = CARTESIAN_POINT ( 'NONE',  ( 0.0000000000000000000, 0.0000000000000000000, 0.0000000000000000000 ) ) ;
#271 = VERTEX_POINT ( 'NONE', #261 ) ;
#272 = DIRECTION ( 'NONE',  ( 0.0000000000000000000, 1.000000000000000000, 0.0000000000000000000 ) ) ;
#273 = MECHANICAL_DESIGN_GEOMETRIC_PRESENTATION_REPRESENTATION (  '', ( #74 ), #288 ) ;
#274 = DIRECTION ( 'NONE',  ( 0.0000000000000000000, 0.0000000000000000000, 1.000000000000000000 ) ) ;
#275 = EDGE_CURVE ( 'NONE', #167, #167, #342, .T. ) ;
#276 = FACE_BOUND ( 'NONE', #121, .T. ) ;
#277 = ORIENTED_EDGE ( 'NONE', *, *, #58, .F. ) ;
#278 = ORIENTED_EDGE ( 'NONE', *, *, #179, .T. ) ;
#279 = EDGE_LOOP ( 'NONE', ( #277 ) ) ;
#280 = AXIS2_PLACEMENT_3D ( 'NONE', #270, #218, #53 ) ;
#281 = APPLICATION_CONTEXT ( 'automotive_design' ) ;
#282 = EDGE_CURVE ( 'NONE', #271, #144, #6, .T. ) ;
#283 = ADVANCED_FACE ( 'NONE', ( #252, #41 ), #350, .F. ) ;
#284 = VERTEX_POINT ( 'NONE', #201 ) ;
#285 = VECTOR ( 'NONE', #140, 39.37007874015748143 ) ;
#286 = CARTESIAN_POINT ( 'NONE',  ( -9.000000000000000000, 0.0000000000000000000, -3.375000000000000000 ) ) ;
#287 = ORIENTED_EDGE ( 'NONE', *, *, #194, .T. ) ;
#288 =( GEOMETRIC_REPRESENTATION_CONTEXT ( 3 ) GLOBAL_UNCERTAINTY_ASSIGNED_CONTEXT ( ( #54 ) ) GLOBAL_UNIT_ASSIGNED_CONTEXT ( ( #308, #398, #368 ) ) REPRESENTATION_CONTEXT ( 'NONE', 'WORKASPACE' ) );
#289 = EDGE_CURVE ( 'NONE', #24, #352, #238, .T. ) ;
#290 = DIRECTION ( 'NONE',  ( 0.0000000000000000000, 0.0000000000000000000, 1.000000000000000000 ) ) ;
#291 = FACE_OUTER_BOUND ( 'NONE', #302, .T. ) ;
#292 = ORIENTED_EDGE ( 'NONE', *, *, #58, .T. ) ;
#293 = EDGE_LOOP ( 'NONE', ( #78, #101, #90, #278 ) ) ;
#294 = ORIENTED_EDGE ( 'NONE', *, *, #289, .F. ) ;
#295 = DIRECTION ( 'NONE',  ( 0.0000000000000000000, 0.0000000000000000000, 1.000000000000000000 ) ) ;
#296 = DIRECTION ( 'NONE',  ( 0.0000000000000000000, 0.0000000000000000000, 1.000000000000000000 ) ) ;
#297 = CARTESIAN_POINT ( 'NONE',  ( -9.000000000000000000, -0.07470000000000000251, 3.375000000000000000 ) ) ;
#298 = STYLED_ITEM ( 'NONE', ( #161 ), #96 ) ;
#299 = ADVANCED_FACE ( 'NONE', ( #113, #57 ), #70, .F. ) ;
#300 = DIRECTION ( 'NONE',  ( -1.000000000000000000, 0.0000000000000000000, -0.0000000000000000000 ) ) ;
#301 = CYLINDRICAL_SURFACE ( 'NONE', #55, 0.1249999999999999029 ) ;
#302 = EDGE_LOOP ( 'NONE', ( #367 ) ) ;
#303 = DIRECTION ( 'NONE',  ( 0.0000000000000000000, 0.0000000000000000000, 1.000000000000000000 ) ) ;
#304 = EDGE_LOOP ( 'NONE', ( #413 ) ) ;
#305 = ORIENTED_EDGE ( 'NONE', *, *, #415, .T. ) ;
#306 = AXIS2_PLACEMENT_3D ( 'NONE', #33, #38, #329 ) ;
#307 = AXIS2_PLACEMENT_3D ( 'NONE', #355, #326, #388 ) ;
#308 =( CONVERSION_BASED_UNIT ( 'INCH', #14 ) LENGTH_UNIT ( ) NAMED_UNIT ( #19 ) );
#309 = ORIENTED_EDGE ( 'NONE', *, *, #106, .F. ) ;
#310 = PRODUCT_DEFINITION ( 'UNKNOWN', '', #246, #112 ) ;
#311 = EDGE_CURVE ( 'NONE', #62, #62, #402, .T. ) ;
#312 = FACE_OUTER_BOUND ( 'NONE', #149, .T. ) ;
#313 = ORIENTED_EDGE ( 'NONE', *, *, #289, .T. ) ;
#314 = DIMENSIONAL_EXPONENTS ( 1.000000000000000000, 0.0000000000000000000, 0.0000000000000000000, 0.0000000000000000000, 0.0000000000000000000, 0.0000000000000000000, 0.0000000000000000000 ) ;
#315 =( LENGTH_UNIT ( ) NAMED_UNIT ( * ) SI_UNIT ( $, .METRE. ) );
#316 = ADVANCED_FACE ( 'NONE', ( #318, #374 ), #301, .F. ) ;
#317 = LENGTH_MEASURE_WITH_UNIT ( LENGTH_MEASURE( 0.02539999999999999897 ), #315 );
#318 = FACE_OUTER_BOUND ( 'NONE', #71, .T. ) ;
#319 = EDGE_LOOP ( 'NONE', ( #183 ) ) ;
#320 = DIRECTION ( 'NONE',  ( -1.000000000000000000, 0.0000000000000000000, -0.0000000000000000000 ) ) ;
#321 = DIRECTION ( 'NONE',  ( -1.000000000000000000, 0.0000000000000000000, 0.0000000000000000000 ) ) ;
#322 = DIRECTION ( 'NONE',  ( -0.0000000000000000000, 1.000000000000000000, 0.0000000000000000000 ) ) ;
#323 = FACE_OUTER_BOUND ( 'NONE', #293, .T. ) ;
#324 = ORIENTED_EDGE ( 'NONE', *, *, #249, .F. ) ;
#325 = DIRECTION ( 'NONE',  ( 1.000000000000000000, -0.0000000000000000000, 0.0000000000000000000 ) ) ;
#326 = DIRECTION ( 'NONE',  ( 0.0000000000000000000, 1.000000000000000000, 0.0000000000000000000 ) ) ;
#327 = AXIS2_PLACEMENT_3D ( 'NONE', #97, #67, #296 ) ;
#328 = ORIENTED_EDGE ( 'NONE', *, *, #267, .T. ) ;
#329 = DIRECTION ( 'NONE',  ( 0.0000000000000000000, 0.0000000000000000000, 1.000000000000000000 ) ) ;
#330 = DIRECTION ( 'NONE',  ( 0.0000000000000000000, 1.000000000000000000, 0.0000000000000000000 ) ) ;
#331 = CARTESIAN_POINT ( 'NONE',  ( 10.87500000000000000, -0.07470000000000000251, -3.937499999999999556 ) ) ;
#332 = VERTEX_POINT ( 'NONE', #336 ) ;
#333 = CYLINDRICAL_SURFACE ( 'NONE', #228, 0.1249999999999999029 ) ;
#334 = EDGE_LOOP ( 'NONE', ( #28 ) ) ;
#335 = ORIENTED_EDGE ( 'NONE', *, *, #45, .F. ) ;
#336 = CARTESIAN_POINT ( 'NONE',  ( 9.000000000000000000, -0.07470000000000000251, 3.500000000000000000 ) ) ;
#337 = DIRECTION ( 'NONE',  ( 0.0000000000000000000, 0.0000000000000000000, 1.000000000000000000 ) ) ;
#338 = COLOUR_RGB ( '',0.7921568627450980005, 0.8196078431372548767, 0.9333333333333333481 ) ;
#339 = LINE ( 'NONE', #160, #362 ) ;
#340 = CARTESIAN_POINT ( 'NONE',  ( -9.000000000000000000, -0.07470000000000000251, -3.250000000000000000 ) ) ;
#341 = LINE ( 'NONE', #206, #202 ) ;
#342 = CIRCLE ( 'NONE', #306, 0.1249999999999999029 ) ;
#343 =( CONVERSION_BASED_UNIT ( 'INCH', #407 ) LENGTH_UNIT ( ) NAMED_UNIT ( #314 ) );
#344 = ORIENTED_EDGE ( 'NONE', *, *, #216, .F. ) ;
#345 =( CONVERSION_BASED_UNIT ( 'INCH', #317 ) LENGTH_UNIT ( ) NAMED_UNIT ( #134 ) );
#346 = VERTEX_POINT ( 'NONE', #235 ) ;
#347 = FACE_OUTER_BOUND ( 'NONE', #29, .T. ) ;
#348 = AXIS2_PLACEMENT_3D ( 'NONE', #243, #80, #147 ) ;
#349 = DIRECTION ( 'NONE',  ( 0.0000000000000000000, 0.0000000000000000000, 1.000000000000000000 ) ) ;
#350 = CYLINDRICAL_SURFACE ( 'NONE', #327, 0.1249999999999999029 ) ;
#351 = CIRCLE ( 'NONE', #10, 0.1249999999999999029 ) ;
#352 = VERTEX_POINT ( 'NONE', #166 ) ;
#353 = DIRECTION ( 'NONE',  ( -0.0000000000000000000, -1.000000000000000000, 0.0000000000000000000 ) ) ;
#354 = PRODUCT ( 'SSP-2424-P10', 'SSP-2424-P10', '', ( #116 ) ) ;
#355 = CARTESIAN_POINT ( 'NONE',  ( 9.000000000000000000, -0.07470000000000000251, 3.375000000000000000 ) ) ;
#356 = EDGE_CURVE ( 'NONE', #182, #182, #63, .T. ) ;
#357 = CARTESIAN_POINT ( 'NONE',  ( -10.87500000000000000, 0.0000000000000000000, -3.937499999999999556 ) ) ;
#358 = ORIENTED_EDGE ( 'NONE', *, *, #356, .T. ) ;
#359 = PRODUCT_DEFINITION_SHAPE ( 'NONE', 'NONE',  #310 ) ;
#360 = ADVANCED_FACE ( 'NONE', ( #47, #291 ), #142, .F. ) ;
#361 = DIRECTION ( 'NONE',  ( -0.0000000000000000000, 0.0000000000000000000, -1.000000000000000000 ) ) ;
#362 = VECTOR ( 'NONE', #35, 39.37007874015748143 ) ;
#363 = FACE_OUTER_BOUND ( 'NONE', #240, .T. ) ;
#364 = ORIENTED_EDGE ( 'NONE', *, *, #259, .T. ) ;
#365 = CARTESIAN_POINT ( 'NONE',  ( -9.000000000000000000, 0.0000000000000000000, -3.250000000000000000 ) ) ;
#366 = LINE ( 'NONE', #387, #264 ) ;
#367 = ORIENTED_EDGE ( 'NONE', *, *, #34, .F. ) ;
#368 =( NAMED_UNIT ( * ) SI_UNIT ( $, .STERADIAN. ) SOLID_ANGLE_UNIT ( ) );
#369 = DIRECTION ( 'NONE',  ( -0.0000000000000000000, 1.000000000000000000, 0.0000000000000000000 ) ) ;
#370 = CARTESIAN_POINT ( 'NONE',  ( 0.0000000000000000000, 0.0000000000000000000, 0.0000000000000000000 ) ) ;
#371 = CIRCLE ( 'NONE', #198, 0.1249999999999999029 ) ;
#372 = ORIENTED_EDGE ( 'NONE', *, *, #81, .F. ) ;
#373 = EDGE_CURVE ( 'NONE', #73, #376, #341, .T. ) ;
#374 = FACE_OUTER_BOUND ( 'NONE', #125, .T. ) ;
#375 = VECTOR ( 'NONE', #322, 39.37007874015748143 ) ;
#376 = VERTEX_POINT ( 'NONE', #268 ) ;
#377 = CARTESIAN_POINT ( 'NONE',  ( 9.000000000000000000, 0.0000000000000000000, 3.375000000000000000 ) ) ;
#378 = FACE_BOUND ( 'NONE', #65, .T. ) ;
#379 = MANIFOLD_SOLID_BREP ( 'Imported1', #77 ) ;
#380 = ADVANCED_FACE ( 'NONE', ( #192, #154, #276, #391, #130, #378, #209 ), #141, .T. ) ;
#381 = EDGE_LOOP ( 'NONE', ( #75 ) ) ;
#382 = CARTESIAN_POINT ( 'NONE',  ( 10.87500000000000000, 0.0000000000000000000, 3.937499999999999556 ) ) ;
#383 = EDGE_CURVE ( 'NONE', #68, #68, #371, .T. ) ;
#384 = CIRCLE ( 'NONE', #95, 0.1249999999999999029 ) ;
#385 = FACE_BOUND ( 'NONE', #172, .T. ) ;
#386 = VERTEX_POINT ( 'NONE', #102 ) ;
#387 = CARTESIAN_POINT ( 'NONE',  ( -10.87500000000000000, -0.07470000000000000251, 3.937499999999999556 ) ) ;
#388 = DIRECTION ( 'NONE',  ( 0.0000000000000000000, 0.0000000000000000000, 1.000000000000000000 ) ) ;
#389 = PRODUCT_RELATED_PRODUCT_CATEGORY ( 'part', '', ( #354 ) ) ;
#390 = DIRECTION ( 'NONE',  ( 0.0000000000000000000, 0.0000000000000000000, 1.000000000000000000 ) ) ;
#391 = FACE_BOUND ( 'NONE', #396, .T. ) ;
#392 = ORIENTED_EDGE ( 'NONE', *, *, #282, .F. ) ;
#393 = PRESENTATION_STYLE_ASSIGNMENT (( #11 ) ) ;
#394 = CIRCLE ( 'NONE', #401, 0.1249999999999999029 ) ;
#395 = EDGE_CURVE ( 'NONE', #346, #346, #384, .T. ) ;
#396 = EDGE_LOOP ( 'NONE', ( #83 ) ) ;
#397 = CARTESIAN_POINT ( 'NONE',  ( 0.0000000000000000000, 0.0000000000000000000, 3.500000000000000000 ) ) ;
#398 =( NAMED_UNIT ( * ) PLANE_ANGLE_UNIT ( ) SI_UNIT ( $, .RADIAN. ) );
#399 = AXIS2_PLACEMENT_3D ( 'NONE', #153, #190, #223 ) ;
#400 = CARTESIAN_POINT ( 'NONE',  ( 0.0000000000000000000, -0.07470000000000000251, 3.375000000000000000 ) ) ;
#401 = AXIS2_PLACEMENT_3D ( 'NONE', #245, #181, #406 ) ;
#402 = CIRCLE ( 'NONE', #231, 0.1249999999999999029 ) ;
#403 =( NAMED_UNIT ( * ) SI_UNIT ( $, .STERADIAN. ) SOLID_ANGLE_UNIT ( ) );
#404 = ORIENTED_EDGE ( 'NONE', *, *, #164, .T. ) ;
#405 = ORIENTED_EDGE ( 'NONE', *, *, #179, .F. ) ;
#406 = DIRECTION ( 'NONE',  ( 0.0000000000000000000, 0.0000000000000000000, 1.000000000000000000 ) ) ;
#407 = LENGTH_MEASURE_WITH_UNIT ( LENGTH_MEASURE( 0.02539999999999999897 ), #237 );
#408 = CYLINDRICAL_SURFACE ( 'NONE', #348, 0.1249999999999999029 ) ;
#409 =( NAMED_UNIT ( * ) PLANE_ANGLE_UNIT ( ) SI_UNIT ( $, .RADIAN. ) );
#410 = CARTESIAN_POINT ( 'NONE',  ( -9.000000000000000000, 0.0000000000000000000, -3.375000000000000000 ) ) ;
#411 = CARTESIAN_POINT ( 'NONE',  ( -10.87500000000000000, 0.0000000000000000000, -3.937499999999999556 ) ) ;
#412 = LINE ( 'NONE', #171, #155 ) ;
#413 = ORIENTED_EDGE ( 'NONE', *, *, #81, .T. ) ;
#414 = PLANE ( 'NONE',  #174 ) ;
#415 = EDGE_CURVE ( 'NONE', #189, #73, #36, .T. ) ;
ENDSEC;
END-ISO-10303-21;
