ISO-10303-21;
HEADER;
FILE_DESCRIPTION (( 'STEP AP214' ),
    '1' );
FILE_NAME ('TAP-ACC02.step',
    '2017-04-05T19:58:32',
    ( '' ),
    ( '' ),
    'SwSTEP 2.0',
    'SolidWorks 2017',
    '' );
FILE_SCHEMA (( 'AUTOMOTIVE_DESIGN' ));
ENDSEC;

DATA;
#1 = LINE ( 'NONE', #221, #131 ) ;
#2 = CYLINDRICAL_SURFACE ( 'NONE', #3, 0.3622047244094489500 ) ;
#3 = AXIS2_PLACEMENT_3D ( 'NONE', #72, #194, #86 ) ;
#4 = AXIS2_PLACEMENT_3D ( 'NONE', #44, #212, #169 ) ;
#5 = PRESENTATION_STYLE_ASSIGNMENT (( #115 ) ) ;
#6 = VECTOR ( 'NONE', #59, 39.37007874015748100 ) ;
#7 = PRODUCT_DEFINITION_CONTEXT ( 'detailed design', #199, 'design' ) ;
#8 = DIRECTION ( 'NONE',  ( 9.244463733058732100E-033, -1.000000000000000000, -6.162975822039154700E-033 ) ) ;
#9 = DIRECTION ( 'NONE',  ( 9.244463733058732100E-033, -1.000000000000000000, -6.162975822039154700E-033 ) ) ;
#10 = PRODUCT_DEFINITION ( 'UNKNOWN', '', #22, #7 ) ;
#11 = VERTEX_POINT ( 'NONE', #158 ) ;
#12 = CARTESIAN_POINT ( 'NONE',  ( 5.665196807079291400E-017, -2.850982909801577600E-033, 0.4625984251968504600 ) ) ;
#13 = EDGE_LOOP ( 'NONE', ( #124, #26 ) ) ;
#14 =( LENGTH_UNIT ( ) NAMED_UNIT ( * ) SI_UNIT ( $, .METRE. ) );
#15 = AXIS2_PLACEMENT_3D ( 'NONE', #35, #160, #56 ) ;
#16 = ORIENTED_EDGE ( 'NONE', *, *, #142, .T. ) ;
#17 = LENGTH_MEASURE_WITH_UNIT ( LENGTH_MEASURE( 0.02539999999999999900 ), #138 );
#18 = DIMENSIONAL_EXPONENTS ( 1.000000000000000000, 0.0000000000000000000, 0.0000000000000000000, 0.0000000000000000000, 0.0000000000000000000, 0.0000000000000000000, 0.0000000000000000000 ) ;
#19 = PLANE ( 'NONE',  #106 ) ;
#20 = SURFACE_STYLE_USAGE ( .BOTH. , #120 ) ;
#21 = ORIENTED_EDGE ( 'NONE', *, *, #142, .F. ) ;
#22 = PRODUCT_DEFINITION_FORMATION_WITH_SPECIFIED_SOURCE ( 'ANY', '', #40, .NOT_KNOWN. ) ;
#23 = CYLINDRICAL_SURFACE ( 'NONE', #206, 0.4625984251968506800 ) ;
#24 = EDGE_CURVE ( 'NONE', #200, #202, #186, .T. ) ;
#25 = DIRECTION ( 'NONE',  ( 1.366616027349729000E-033, 6.162975822039152700E-033, 1.000000000000000000 ) ) ;
#26 = ORIENTED_EDGE ( 'NONE', *, *, #24, .F. ) ;
#27 = DIRECTION ( 'NONE',  ( 9.244463733058732100E-033, -1.000000000000000000, -6.162975822039154700E-033 ) ) ;
#28 = DIRECTION ( 'NONE',  ( -9.244463733058732100E-033, 1.000000000000000000, 6.162975822039154700E-033 ) ) ;
#29 =( NAMED_UNIT ( * ) PLANE_ANGLE_UNIT ( ) SI_UNIT ( $, .RADIAN. ) );
#30 = VERTEX_POINT ( 'NONE', #204 ) ;
#31 = PRODUCT_RELATED_PRODUCT_CATEGORY ( 'part', '', ( #40 ) ) ;
#32 = ADVANCED_FACE ( 'NONE', ( #139, #90 ), #19, .T. ) ;
#33 = CARTESIAN_POINT ( 'NONE',  ( 0.3622047244094488400, 0.0000000000000000000, -1.639108796198557900E-015 ) ) ;
#34 =( CONVERSION_BASED_UNIT ( 'INCH', #17 ) LENGTH_UNIT ( ) NAMED_UNIT ( #18 ) );
#35 = CARTESIAN_POINT ( 'NONE',  ( 0.0000000000000000000, 2.047244094488189300, 0.0000000000000000000 ) ) ;
#36 = FACE_OUTER_BOUND ( 'NONE', #83, .T. ) ;
#37 = VERTEX_POINT ( 'NONE', #192 ) ;
#38 =( GEOMETRIC_REPRESENTATION_CONTEXT ( 3 ) GLOBAL_UNCERTAINTY_ASSIGNED_CONTEXT ( ( #39 ) ) GLOBAL_UNIT_ASSIGNED_CONTEXT ( ( #34, #159, #54 ) ) REPRESENTATION_CONTEXT ( 'NONE', 'WORKASPACE' ) );
#39 = UNCERTAINTY_MEASURE_WITH_UNIT (LENGTH_MEASURE( 1.000000000000000100E-005 ), #34, 'distance_accuracy_value', 'NONE');
#40 = PRODUCT ( 'TAP-ACC02', 'TAP-ACC02', '', ( #81 ) ) ;
#41 = LINE ( 'NONE', #208, #6 ) ;
#42 = LINE ( 'NONE', #167, #177 ) ;
#43 = EDGE_LOOP ( 'NONE', ( #16, #195 ) ) ;
#44 = CARTESIAN_POINT ( 'NONE',  ( 0.0000000000000000000, 0.0000000000000000000, 0.0000000000000000000 ) ) ;
#45 = CARTESIAN_POINT ( 'NONE',  ( -6.321944221007608100E-034, 2.047244094488189300, -0.4625984251968506800 ) ) ;
#46 =( CONVERSION_BASED_UNIT ( 'INCH', #65 ) LENGTH_UNIT ( ) NAMED_UNIT ( #174 ) );
#47 = LINE ( 'NONE', #76, #162 ) ;
#48 = CIRCLE ( 'NONE', #15, 0.3622047244094489500 ) ;
#49 = EDGE_CURVE ( 'NONE', #37, #11, #1, .T. ) ;
#50 = MECHANICAL_DESIGN_GEOMETRIC_PRESENTATION_REPRESENTATION (  '', ( #96 ), #38 ) ;
#51 = ORIENTED_EDGE ( 'NONE', *, *, #49, .F. ) ;
#52 = ADVANCED_FACE ( 'NONE', ( #179 ), #217, .F. ) ;
#53 = SURFACE_STYLE_FILL_AREA ( #213 ) ;
#54 =( NAMED_UNIT ( * ) SI_UNIT ( $, .STERADIAN. ) SOLID_ANGLE_UNIT ( ) );
#55 = ORIENTED_EDGE ( 'NONE', *, *, #153, .T. ) ;
#56 = DIRECTION ( 'NONE',  ( -1.366616027349729200E-033, 0.0000000000000000000, -1.000000000000000000 ) ) ;
#57 = CLOSED_SHELL ( 'NONE', ( #191, #118, #203, #32, #135, #52 ) ) ;
#58 = ORIENTED_EDGE ( 'NONE', *, *, #143, .T. ) ;
#59 = DIRECTION ( 'NONE',  ( 9.244463733058732100E-033, -1.000000000000000000, -6.162975822039154700E-033 ) ) ;
#60 = DIRECTION ( 'NONE',  ( 9.244463733058732100E-033, -1.000000000000000000, -6.162975822039154700E-033 ) ) ;
#61 = VERTEX_POINT ( 'NONE', #165 ) ;
#62 = PRESENTATION_LAYER_ASSIGNMENT (  '', '', ( #96 ) ) ;
#63 = CARTESIAN_POINT ( 'NONE',  ( 0.0000000000000000000, 0.0000000000000000000, 0.0000000000000000000 ) ) ;
#64 = CARTESIAN_POINT ( 'NONE',  ( 0.0000000000000000000, 2.047244094488189300, 0.0000000000000000000 ) ) ;
#65 = LENGTH_MEASURE_WITH_UNIT ( LENGTH_MEASURE( 0.02539999999999999900 ), #152 );
#66 =( NAMED_UNIT ( * ) SI_UNIT ( $, .STERADIAN. ) SOLID_ANGLE_UNIT ( ) );
#67 = DIRECTION ( 'NONE',  ( 0.0000000000000000000, 0.0000000000000000000, 1.000000000000000000 ) ) ;
#68 = FACE_OUTER_BOUND ( 'NONE', #161, .T. ) ;
#69 = PRESENTATION_STYLE_ASSIGNMENT (( #20 ) ) ;
#70 = ORIENTED_EDGE ( 'NONE', *, *, #168, .T. ) ;
#71 = DIRECTION ( 'NONE',  ( -1.366616027349728900E-033, -6.162975822039152000E-033, -1.000000000000000000 ) ) ;
#72 = CARTESIAN_POINT ( 'NONE',  ( 0.0000000000000000000, 0.0000000000000000000, 0.0000000000000000000 ) ) ;
#73 = ORIENTED_EDGE ( 'NONE', *, *, #114, .T. ) ;
#74 = AXIS2_PLACEMENT_3D ( 'NONE', #196, #8, #123 ) ;
#75 = PRODUCT_DEFINITION_SHAPE ( 'NONE', 'NONE',  #10 ) ;
#76 = CARTESIAN_POINT ( 'NONE',  ( 4.435728563840809300E-017, 2.232258959163788800E-033, 0.3622047244094489500 ) ) ;
#77 = ORIENTED_EDGE ( 'NONE', *, *, #157, .F. ) ;
#78 = DIRECTION ( 'NONE',  ( -1.366616027349728900E-033, -6.162975822039152000E-033, -1.000000000000000000 ) ) ;
#79 = DIRECTION ( 'NONE',  ( -1.366616027349729200E-033, 0.0000000000000000000, -1.000000000000000000 ) ) ;
#80 = APPLICATION_PROTOCOL_DEFINITION ( 'draft international standard', 'automotive_design', 1998, #100 ) ;
#81 = PRODUCT_CONTEXT ( 'NONE', #100, 'mechanical' ) ;
#82 = FACE_OUTER_BOUND ( 'NONE', #102, .T. ) ;
#83 = EDGE_LOOP ( 'NONE', ( #108, #58, #116, #55 ) ) ;
#84 = AXIS2_PLACEMENT_3D ( 'NONE', #107, #9, #125 ) ;
#85 = DIRECTION ( 'NONE',  ( 9.244463733058733500E-033, -1.000000000000000000, 6.162975822039152700E-033 ) ) ;
#86 = DIRECTION ( 'NONE',  ( -1.366616027349729200E-033, -6.162975822039152700E-033, -1.000000000000000000 ) ) ;
#87 = CIRCLE ( 'NONE', #84, 0.4625984251968506800 ) ;
#88 = CIRCLE ( 'NONE', #103, 0.4625984251968506800 ) ;
#89 = PRESENTATION_LAYER_ASSIGNMENT (  '', '', ( #215 ) ) ;
#90 = FACE_OUTER_BOUND ( 'NONE', #13, .T. ) ;
#91 = CIRCLE ( 'NONE', #182, 0.4625984251968506800 ) ;
#92 = DIRECTION ( 'NONE',  ( 9.244463733058732100E-033, -1.000000000000000000, -6.162975822039154700E-033 ) ) ;
#93 = DIRECTION ( 'NONE',  ( 9.244463733058732100E-033, -1.000000000000000000, -6.162975822039154700E-033 ) ) ;
#94 = DIRECTION ( 'NONE',  ( -9.244463733058732100E-033, 1.000000000000000000, 6.162975822039154700E-033 ) ) ;
#95 = EDGE_CURVE ( 'NONE', #61, #200, #41, .T. ) ;
#96 = STYLED_ITEM ( 'NONE', ( #69 ), #117 ) ;
#97 = DIRECTION ( 'NONE',  ( 9.244463733058732100E-033, -1.000000000000000000, -6.162975822039154700E-033 ) ) ;
#98 = COLOUR_RGB ( '',1.000000000000000000, 1.000000000000000000, 1.000000000000000000 ) ;
#99 = ORIENTED_EDGE ( 'NONE', *, *, #127, .F. ) ;
#100 = APPLICATION_CONTEXT ( 'automotive_design' ) ;
#101 = APPLICATION_PROTOCOL_DEFINITION ( 'draft international standard', 'automotive_design', 1998, #199 ) ;
#102 = EDGE_LOOP ( 'NONE', ( #209, #193, #111, #155 ) ) ;
#103 = AXIS2_PLACEMENT_3D ( 'NONE', #63, #183, #78 ) ;
#104 = EDGE_CURVE ( 'NONE', #207, #61, #87, .T. ) ;
#105 = ORIENTED_EDGE ( 'NONE', *, *, #143, .F. ) ;
#106 = AXIS2_PLACEMENT_3D ( 'NONE', #33, #85, #205 ) ;
#107 = CARTESIAN_POINT ( 'NONE',  ( 0.0000000000000000000, 2.047244094488189300, 0.0000000000000000000 ) ) ;
#108 = ORIENTED_EDGE ( 'NONE', *, *, #95, .F. ) ;
#109 = SURFACE_STYLE_FILL_AREA ( #223 ) ;
#110 = CARTESIAN_POINT ( 'NONE',  ( 4.435728563840806800E-017, 2.047244094488189300, 0.3622047244094488400 ) ) ;
#111 = ORIENTED_EDGE ( 'NONE', *, *, #24, .T. ) ;
#112 = DIRECTION ( 'NONE',  ( -1.366616027349728900E-033, -6.162975822039152000E-033, -1.000000000000000000 ) ) ;
#113 = CARTESIAN_POINT ( 'NONE',  ( 0.0000000000000000000, 0.0000000000000000000, 0.0000000000000000000 ) ) ;
#114 = EDGE_CURVE ( 'NONE', #190, #30, #47, .T. ) ;
#115 = SURFACE_STYLE_USAGE ( .BOTH. , #216 ) ;
#116 = ORIENTED_EDGE ( 'NONE', *, *, #156, .T. ) ;
#117 = MANIFOLD_SOLID_BREP ( 'Rivoluzione1', #57 ) ;
#118 = ADVANCED_FACE ( 'NONE', ( #68 ), #2, .F. ) ;
#119 = CARTESIAN_POINT ( 'NONE',  ( 0.0000000000000000000, 0.0000000000000000000, 0.0000000000000000000 ) ) ;
#120 = SURFACE_SIDE_STYLE ('',( #109 ) ) ;
#121 = CYLINDRICAL_SURFACE ( 'NONE', #4, 0.4625984251968506800 ) ;
#122 = EDGE_LOOP ( 'NONE', ( #145, #105 ) ) ;
#123 = DIRECTION ( 'NONE',  ( -1.366616027349729200E-033, -6.162975822039152700E-033, -1.000000000000000000 ) ) ;
#124 = ORIENTED_EDGE ( 'NONE', *, *, #153, .F. ) ;
#125 = DIRECTION ( 'NONE',  ( -1.366616027349728900E-033, 0.0000000000000000000, -1.000000000000000000 ) ) ;
#126 = CARTESIAN_POINT ( 'NONE',  ( 0.0000000000000000000, 2.047244094488189300, 0.0000000000000000000 ) ) ;
#127 = EDGE_CURVE ( 'NONE', #37, #190, #48, .T. ) ;
#128 = AXIS2_PLACEMENT_3D ( 'NONE', #119, #175, #71 ) ;
#129 = CARTESIAN_POINT ( 'NONE',  ( 0.0000000000000000000, 0.0000000000000000000, 0.0000000000000000000 ) ) ;
#130 = CARTESIAN_POINT ( 'NONE',  ( -6.321944221007608100E-034, -2.850982909801577900E-033, -0.4625984251968506800 ) ) ;
#131 = VECTOR ( 'NONE', #92, 39.37007874015748100 ) ;
#132 =( CONVERSION_BASED_UNIT ( 'INCH', #214 ) LENGTH_UNIT ( ) NAMED_UNIT ( #136 ) );
#133 = CIRCLE ( 'NONE', #210, 0.3622047244094489500 ) ;
#134 = ORIENTED_EDGE ( 'NONE', *, *, #168, .F. ) ;
#135 = ADVANCED_FACE ( 'NONE', ( #187, #141 ), #140, .T. ) ;
#136 = DIMENSIONAL_EXPONENTS ( 1.000000000000000000, 0.0000000000000000000, 0.0000000000000000000, 0.0000000000000000000, 0.0000000000000000000, 0.0000000000000000000, 0.0000000000000000000 ) ;
#137 = AXIS2_PLACEMENT_3D ( 'NONE', #129, #28, #149 ) ;
#138 =( LENGTH_UNIT ( ) NAMED_UNIT ( * ) SI_UNIT ( $, .METRE. ) );
#139 = FACE_BOUND ( 'NONE', #43, .T. ) ;
#140 = PLANE ( 'NONE',  #201 ) ;
#141 = FACE_BOUND ( 'NONE', #163, .T. ) ;
#142 = EDGE_CURVE ( 'NONE', #11, #30, #133, .T. ) ;
#143 = EDGE_CURVE ( 'NONE', #61, #207, #91, .T. ) ;
#144 = UNCERTAINTY_MEASURE_WITH_UNIT (LENGTH_MEASURE( 1.000000000000000100E-005 ), #132, 'distance_accuracy_value', 'NONE');
#145 = ORIENTED_EDGE ( 'NONE', *, *, #104, .F. ) ;
#146 = DIRECTION ( 'NONE',  ( -9.244463733058733500E-033, 1.000000000000000000, -6.162975822039152700E-033 ) ) ;
#147 = ORIENTED_EDGE ( 'NONE', *, *, #49, .T. ) ;
#148 = DIRECTION ( 'NONE',  ( -1.366616027349728900E-033, 0.0000000000000000000, -1.000000000000000000 ) ) ;
#149 = DIRECTION ( 'NONE',  ( -1.366616027349729200E-033, -6.162975822039152700E-033, -1.000000000000000000 ) ) ;
#150 = FILL_AREA_STYLE_COLOUR ( '', #98 ) ;
#151 = AXIS2_PLACEMENT_3D ( 'NONE', #64, #184, #79 ) ;
#152 =( LENGTH_UNIT ( ) NAMED_UNIT ( * ) SI_UNIT ( $, .METRE. ) );
#153 = EDGE_CURVE ( 'NONE', #202, #200, #88, .T. ) ;
#154 =( NAMED_UNIT ( * ) SI_UNIT ( $, .STERADIAN. ) SOLID_ANGLE_UNIT ( ) );
#155 = ORIENTED_EDGE ( 'NONE', *, *, #156, .F. ) ;
#156 = EDGE_CURVE ( 'NONE', #207, #202, #42, .T. ) ;
#157 = EDGE_CURVE ( 'NONE', #30, #11, #218, .T. ) ;
#158 = CARTESIAN_POINT ( 'NONE',  ( -4.949947815597446100E-034, -2.232258959163788500E-033, -0.3622047244094489500 ) ) ;
#159 =( NAMED_UNIT ( * ) PLANE_ANGLE_UNIT ( ) SI_UNIT ( $, .RADIAN. ) );
#160 = DIRECTION ( 'NONE',  ( 9.244463733058732100E-033, -1.000000000000000000, -6.162975822039154700E-033 ) ) ;
#161 = EDGE_LOOP ( 'NONE', ( #134, #73, #21, #51 ) ) ;
#162 = VECTOR ( 'NONE', #93, 39.37007874015748100 ) ;
#163 = EDGE_LOOP ( 'NONE', ( #173, #70 ) ) ;
#164 =( GEOMETRIC_REPRESENTATION_CONTEXT ( 3 ) GLOBAL_UNCERTAINTY_ASSIGNED_CONTEXT ( ( #220 ) ) GLOBAL_UNIT_ASSIGNED_CONTEXT ( ( #46, #170, #66 ) ) REPRESENTATION_CONTEXT ( 'NONE', 'WORKASPACE' ) );
#165 = CARTESIAN_POINT ( 'NONE',  ( 5.665196807079291400E-017, 2.047244094488189300, 0.4625984251968504600 ) ) ;
#166 = ORIENTED_EDGE ( 'NONE', *, *, #114, .F. ) ;
#167 = CARTESIAN_POINT ( 'NONE',  ( -6.321944221007608100E-034, -2.850982909801577900E-033, -0.4625984251968506800 ) ) ;
#168 = EDGE_CURVE ( 'NONE', #190, #37, #180, .T. ) ;
#169 = DIRECTION ( 'NONE',  ( -1.366616027349728900E-033, -6.162975822039152000E-033, -1.000000000000000000 ) ) ;
#170 =( NAMED_UNIT ( * ) PLANE_ANGLE_UNIT ( ) SI_UNIT ( $, .RADIAN. ) );
#171 = CARTESIAN_POINT ( 'NONE',  ( 0.0000000000000000000, 0.0000000000000000000, 0.0000000000000000000 ) ) ;
#172 = SHAPE_DEFINITION_REPRESENTATION ( #75, #185 ) ;
#173 = ORIENTED_EDGE ( 'NONE', *, *, #127, .T. ) ;
#174 = DIMENSIONAL_EXPONENTS ( 1.000000000000000000, 0.0000000000000000000, 0.0000000000000000000, 0.0000000000000000000, 0.0000000000000000000, 0.0000000000000000000, 0.0000000000000000000 ) ;
#175 = DIRECTION ( 'NONE',  ( -9.244463733058732100E-033, 1.000000000000000000, 6.162975822039154700E-033 ) ) ;
#176 = COLOUR_RGB ( '',1.000000000000000000, 1.000000000000000000, 1.000000000000000000 ) ;
#177 = VECTOR ( 'NONE', #60, 39.37007874015748100 ) ;
#178 = MECHANICAL_DESIGN_GEOMETRIC_PRESENTATION_REPRESENTATION (  '', ( #215 ), #189 ) ;
#179 = FACE_OUTER_BOUND ( 'NONE', #197, .T. ) ;
#180 = CIRCLE ( 'NONE', #151, 0.3622047244094489500 ) ;
#181 = CARTESIAN_POINT ( 'NONE',  ( 0.3622047244094486800, 2.047244094488189300, 0.0000000000000000000 ) ) ;
#182 = AXIS2_PLACEMENT_3D ( 'NONE', #126, #27, #148 ) ;
#183 = DIRECTION ( 'NONE',  ( -9.244463733058732100E-033, 1.000000000000000000, 6.162975822039154700E-033 ) ) ;
#184 = DIRECTION ( 'NONE',  ( 9.244463733058732100E-033, -1.000000000000000000, -6.162975822039154700E-033 ) ) ;
#185 = ADVANCED_BREP_SHAPE_REPRESENTATION ( 'TAP-ACC02', ( #117, #219 ), #164 ) ;
#186 = CIRCLE ( 'NONE', #128, 0.4625984251968506800 ) ;
#187 = FACE_OUTER_BOUND ( 'NONE', #122, .T. ) ;
#188 = DIRECTION ( 'NONE',  ( 1.000000000000000000, 0.0000000000000000000, 0.0000000000000000000 ) ) ;
#189 =( GEOMETRIC_REPRESENTATION_CONTEXT ( 3 ) GLOBAL_UNCERTAINTY_ASSIGNED_CONTEXT ( ( #144 ) ) GLOBAL_UNIT_ASSIGNED_CONTEXT ( ( #132, #29, #154 ) ) REPRESENTATION_CONTEXT ( 'NONE', 'WORKASPACE' ) );
#190 = VERTEX_POINT ( 'NONE', #110 ) ;
#191 = ADVANCED_FACE ( 'NONE', ( #82 ), #121, .T. ) ;
#192 = CARTESIAN_POINT ( 'NONE',  ( -4.949947815597446100E-034, 2.047244094488189300, -0.3622047244094489500 ) ) ;
#193 = ORIENTED_EDGE ( 'NONE', *, *, #95, .T. ) ;
#194 = DIRECTION ( 'NONE',  ( 9.244463733058732100E-033, -1.000000000000000000, -6.162975822039154700E-033 ) ) ;
#195 = ORIENTED_EDGE ( 'NONE', *, *, #157, .T. ) ;
#196 = CARTESIAN_POINT ( 'NONE',  ( 0.0000000000000000000, 0.0000000000000000000, 0.0000000000000000000 ) ) ;
#197 = EDGE_LOOP ( 'NONE', ( #166, #99, #147, #77 ) ) ;
#198 = CARTESIAN_POINT ( 'NONE',  ( 0.0000000000000000000, 0.0000000000000000000, 0.0000000000000000000 ) ) ;
#199 = APPLICATION_CONTEXT ( 'automotive_design' ) ;
#200 = VERTEX_POINT ( 'NONE', #12 ) ;
#201 = AXIS2_PLACEMENT_3D ( 'NONE', #181, #146, #25 ) ;
#202 = VERTEX_POINT ( 'NONE', #130 ) ;
#203 = ADVANCED_FACE ( 'NONE', ( #36 ), #23, .T. ) ;
#204 = CARTESIAN_POINT ( 'NONE',  ( 4.435728563840806800E-017, -2.232258959163787800E-033, 0.3622047244094488400 ) ) ;
#205 = DIRECTION ( 'NONE',  ( -1.366616027349729000E-033, -6.162975822039152700E-033, -1.000000000000000000 ) ) ;
#206 = AXIS2_PLACEMENT_3D ( 'NONE', #113, #97, #112 ) ;
#207 = VERTEX_POINT ( 'NONE', #45 ) ;
#208 = CARTESIAN_POINT ( 'NONE',  ( 5.665196807079295100E-017, 2.850982909801578900E-033, 0.4625984251968506800 ) ) ;
#209 = ORIENTED_EDGE ( 'NONE', *, *, #104, .T. ) ;
#210 = AXIS2_PLACEMENT_3D ( 'NONE', #198, #94, #211 ) ;
#211 = DIRECTION ( 'NONE',  ( -1.366616027349729200E-033, -6.162975822039152700E-033, -1.000000000000000000 ) ) ;
#212 = DIRECTION ( 'NONE',  ( 9.244463733058732100E-033, -1.000000000000000000, -6.162975822039154700E-033 ) ) ;
#213 = FILL_AREA_STYLE ('',( #150 ) ) ;
#214 = LENGTH_MEASURE_WITH_UNIT ( LENGTH_MEASURE( 0.02539999999999999900 ), #14 );
#215 = STYLED_ITEM ( 'NONE', ( #5 ), #185 ) ;
#216 = SURFACE_SIDE_STYLE ('',( #53 ) ) ;
#217 = CYLINDRICAL_SURFACE ( 'NONE', #74, 0.3622047244094489500 ) ;
#218 = CIRCLE ( 'NONE', #137, 0.3622047244094489500 ) ;
#219 = AXIS2_PLACEMENT_3D ( 'NONE', #171, #67, #188 ) ;
#220 = UNCERTAINTY_MEASURE_WITH_UNIT (LENGTH_MEASURE( 1.000000000000000100E-005 ), #46, 'distance_accuracy_value', 'NONE');
#221 = CARTESIAN_POINT ( 'NONE',  ( -4.949947815597446100E-034, -2.232258959163788500E-033, -0.3622047244094489500 ) ) ;
#222 = FILL_AREA_STYLE_COLOUR ( '', #176 ) ;
#223 = FILL_AREA_STYLE ('',( #222 ) ) ;
ENDSEC;
END-ISO-10303-21;
