ISO-10303-21;
HEADER;
FILE_DESCRIPTION (( 'STEP AP214' ),
    '1' );
FILE_NAME ('TAP-ACC04.step',
    '2017-04-05T19:59:13',
    ( '' ),
    ( '' ),
    'SwSTEP 2.0',
    'SolidWorks 2017',
    '' );
FILE_SCHEMA (( 'AUTOMOTIVE_DESIGN' ));
ENDSEC;

DATA;
#1 = AXIS2_PLACEMENT_3D ( 'NONE', #177, #198, #95 ) ;
#2 = CARTESIAN_POINT ( 'NONE',  ( 0.0000000000000000000, 0.0000000000000000000, 0.0000000000000000000 ) ) ;
#3 = CARTESIAN_POINT ( 'NONE',  ( -6.321944221007608100E-034, 2.047244094488189300, -0.4625984251968506800 ) ) ;
#4 = FACE_BOUND ( 'NONE', #58, .T. ) ;
#5 = EDGE_LOOP ( 'NONE', ( #170, #19 ) ) ;
#6 = DIRECTION ( 'NONE',  ( -1.366616027349729200E-033, -6.162975822039152700E-033, -1.000000000000000000 ) ) ;
#7 = CARTESIAN_POINT ( 'NONE',  ( 0.3622047244094488400, 0.0000000000000000000, -1.639108796198557900E-015 ) ) ;
#8 = FILL_AREA_STYLE ('',( #117 ) ) ;
#9 = COLOUR_RGB ( '',1.000000000000000000, 1.000000000000000000, 1.000000000000000000 ) ;
#10 = DIRECTION ( 'NONE',  ( -1.366616027349729000E-033, -6.162975822039152700E-033, -1.000000000000000000 ) ) ;
#11 = CARTESIAN_POINT ( 'NONE',  ( 0.0000000000000000000, 0.0000000000000000000, 0.0000000000000000000 ) ) ;
#12 = ORIENTED_EDGE ( 'NONE', *, *, #34, .T. ) ;
#13 = FACE_OUTER_BOUND ( 'NONE', #5, .T. ) ;
#14 = STYLED_ITEM ( 'NONE', ( #30 ), #32 ) ;
#15 = CIRCLE ( 'NONE', #38, 0.4625984251968506800 ) ;
#16 = LINE ( 'NONE', #218, #111 ) ;
#17 = DIRECTION ( 'NONE',  ( -1.366616027349728900E-033, -6.162975822039152000E-033, -1.000000000000000000 ) ) ;
#18 = DIRECTION ( 'NONE',  ( -1.366616027349728900E-033, -6.162975822039152000E-033, -1.000000000000000000 ) ) ;
#19 = ORIENTED_EDGE ( 'NONE', *, *, #34, .F. ) ;
#20 = CARTESIAN_POINT ( 'NONE',  ( -6.321944221007608100E-034, -2.850982909801577900E-033, -0.4625984251968506800 ) ) ;
#21 = CARTESIAN_POINT ( 'NONE',  ( 0.0000000000000000000, 2.047244094488189300, 0.0000000000000000000 ) ) ;
#22 = AXIS2_PLACEMENT_3D ( 'NONE', #131, #114, #6 ) ;
#23 = ORIENTED_EDGE ( 'NONE', *, *, #208, .F. ) ;
#24 = FILL_AREA_STYLE ('',( #116 ) ) ;
#25 = SURFACE_STYLE_USAGE ( .BOTH. , #133 ) ;
#26 = CARTESIAN_POINT ( 'NONE',  ( 0.0000000000000000000, 0.0000000000000000000, 0.0000000000000000000 ) ) ;
#27 = DIRECTION ( 'NONE',  ( -1.366616027349729200E-033, -6.162975822039152700E-033, -1.000000000000000000 ) ) ;
#28 = AXIS2_PLACEMENT_3D ( 'NONE', #36, #143, #18 ) ;
#29 = ORIENTED_EDGE ( 'NONE', *, *, #84, .F. ) ;
#30 = PRESENTATION_STYLE_ASSIGNMENT (( #25 ) ) ;
#31 = EDGE_CURVE ( 'NONE', #126, #202, #156, .T. ) ;
#32 = ADVANCED_BREP_SHAPE_REPRESENTATION ( 'TAP-ACC04', ( #137, #107 ), #215 ) ;
#33 = AXIS2_PLACEMENT_3D ( 'NONE', #212, #37, #192 ) ;
#34 = EDGE_CURVE ( 'NONE', #130, #45, #60, .T. ) ;
#35 = ORIENTED_EDGE ( 'NONE', *, *, #195, .T. ) ;
#36 = CARTESIAN_POINT ( 'NONE',  ( 0.0000000000000000000, 0.0000000000000000000, 0.0000000000000000000 ) ) ;
#37 = DIRECTION ( 'NONE',  ( 9.244463733058732100E-033, -1.000000000000000000, -6.162975822039154700E-033 ) ) ;
#38 = AXIS2_PLACEMENT_3D ( 'NONE', #106, #211, #91 ) ;
#39 = ORIENTED_EDGE ( 'NONE', *, *, #136, .T. ) ;
#40 = LENGTH_MEASURE_WITH_UNIT ( LENGTH_MEASURE( 0.02539999999999999900 ), #42 );
#41 = DIRECTION ( 'NONE',  ( -1.366616027349728900E-033, 0.0000000000000000000, -1.000000000000000000 ) ) ;
#42 =( LENGTH_UNIT ( ) NAMED_UNIT ( * ) SI_UNIT ( $, .METRE. ) );
#43 = SURFACE_STYLE_USAGE ( .BOTH. , #151 ) ;
#44 =( CONVERSION_BASED_UNIT ( 'INCH', #206 ) LENGTH_UNIT ( ) NAMED_UNIT ( #90 ) );
#45 = VERTEX_POINT ( 'NONE', #3 ) ;
#46 = DIRECTION ( 'NONE',  ( 9.244463733058732100E-033, -1.000000000000000000, -6.162975822039154700E-033 ) ) ;
#47 = VERTEX_POINT ( 'NONE', #59 ) ;
#48 = CYLINDRICAL_SURFACE ( 'NONE', #22, 0.3622047244094489500 ) ;
#49 = EDGE_CURVE ( 'NONE', #53, #47, #108, .T. ) ;
#50 = PRESENTATION_LAYER_ASSIGNMENT (  '', '', ( #14 ) ) ;
#51 = VECTOR ( 'NONE', #96, 39.37007874015748100 ) ;
#52 = EDGE_CURVE ( 'NONE', #47, #53, #15, .T. ) ;
#53 = VERTEX_POINT ( 'NONE', #20 ) ;
#54 = PRESENTATION_LAYER_ASSIGNMENT (  '', '', ( #86 ) ) ;
#55 = VECTOR ( 'NONE', #62, 39.37007874015748100 ) ;
#56 = CARTESIAN_POINT ( 'NONE',  ( 4.435728563840806800E-017, 2.047244094488189300, 0.3622047244094488400 ) ) ;
#57 = CYLINDRICAL_SURFACE ( 'NONE', #76, 0.3622047244094489500 ) ;
#58 = EDGE_LOOP ( 'NONE', ( #115, #71 ) ) ;
#59 = CARTESIAN_POINT ( 'NONE',  ( 5.665196807079291400E-017, -2.850982909801577600E-033, 0.4625984251968504600 ) ) ;
#60 = CIRCLE ( 'NONE', #33, 0.4625984251968506800 ) ;
#61 = VECTOR ( 'NONE', #100, 39.37007874015748100 ) ;
#62 = DIRECTION ( 'NONE',  ( 9.244463733058732100E-033, -1.000000000000000000, -6.162975822039154700E-033 ) ) ;
#63 = MECHANICAL_DESIGN_GEOMETRIC_PRESENTATION_REPRESENTATION (  '', ( #14 ), #74 ) ;
#64 = CARTESIAN_POINT ( 'NONE',  ( -4.949947815597446100E-034, -2.232258959163788500E-033, -0.3622047244094489500 ) ) ;
#65 =( NAMED_UNIT ( * ) PLANE_ANGLE_UNIT ( ) SI_UNIT ( $, .RADIAN. ) );
#66 = FACE_OUTER_BOUND ( 'NONE', #164, .T. ) ;
#67 =( CONVERSION_BASED_UNIT ( 'INCH', #109 ) LENGTH_UNIT ( ) NAMED_UNIT ( #190 ) );
#68 =( NAMED_UNIT ( * ) SI_UNIT ( $, .STERADIAN. ) SOLID_ANGLE_UNIT ( ) );
#69 = CIRCLE ( 'NONE', #147, 0.3622047244094489500 ) ;
#70 = AXIS2_PLACEMENT_3D ( 'NONE', #89, #188, #178 ) ;
#71 = ORIENTED_EDGE ( 'NONE', *, *, #180, .T. ) ;
#72 = ADVANCED_FACE ( 'NONE', ( #193 ), #57, .F. ) ;
#73 = ORIENTED_EDGE ( 'NONE', *, *, #31, .F. ) ;
#74 =( GEOMETRIC_REPRESENTATION_CONTEXT ( 3 ) GLOBAL_UNCERTAINTY_ASSIGNED_CONTEXT ( ( #220 ) ) GLOBAL_UNIT_ASSIGNED_CONTEXT ( ( #44, #167, #68 ) ) REPRESENTATION_CONTEXT ( 'NONE', 'WORKASPACE' ) );
#75 = UNCERTAINTY_MEASURE_WITH_UNIT (LENGTH_MEASURE( 1.000000000000000100E-005 ), #165, 'distance_accuracy_value', 'NONE');
#76 = AXIS2_PLACEMENT_3D ( 'NONE', #191, #172, #128 ) ;
#77 = VERTEX_POINT ( 'NONE', #56 ) ;
#78 = PLANE ( 'NONE',  #1 ) ;
#79 = COLOUR_RGB ( '',1.000000000000000000, 1.000000000000000000, 1.000000000000000000 ) ;
#80 = CARTESIAN_POINT ( 'NONE',  ( 5.665196807079291400E-017, 2.047244094488189300, 0.4625984251968504600 ) ) ;
#81 =( NAMED_UNIT ( * ) SI_UNIT ( $, .STERADIAN. ) SOLID_ANGLE_UNIT ( ) );
#82 = DIRECTION ( 'NONE',  ( 0.0000000000000000000, 0.0000000000000000000, 1.000000000000000000 ) ) ;
#83 = ORIENTED_EDGE ( 'NONE', *, *, #52, .T. ) ;
#84 = EDGE_CURVE ( 'NONE', #205, #77, #104, .T. ) ;
#85 = PRODUCT ( 'TAP-ACC04', 'TAP-ACC04', '', ( #99 ) ) ;
#86 = STYLED_ITEM ( 'NONE', ( #150 ), #137 ) ;
#87 = ADVANCED_FACE ( 'NONE', ( #66 ), #145, .T. ) ;
#88 = EDGE_LOOP ( 'NONE', ( #92, #214, #83, #162 ) ) ;
#89 = CARTESIAN_POINT ( 'NONE',  ( 0.0000000000000000000, 2.047244094488189300, 0.0000000000000000000 ) ) ;
#90 = DIMENSIONAL_EXPONENTS ( 1.000000000000000000, 0.0000000000000000000, 0.0000000000000000000, 0.0000000000000000000, 0.0000000000000000000, 0.0000000000000000000, 0.0000000000000000000 ) ;
#91 = DIRECTION ( 'NONE',  ( -1.366616027349728900E-033, -6.162975822039152000E-033, -1.000000000000000000 ) ) ;
#92 = ORIENTED_EDGE ( 'NONE', *, *, #204, .T. ) ;
#93 = SURFACE_STYLE_FILL_AREA ( #8 ) ;
#94 = DIRECTION ( 'NONE',  ( 9.244463733058732100E-033, -1.000000000000000000, -6.162975822039154700E-033 ) ) ;
#95 = DIRECTION ( 'NONE',  ( 1.366616027349729000E-033, 6.162975822039152700E-033, 1.000000000000000000 ) ) ;
#96 = DIRECTION ( 'NONE',  ( 9.244463733058732100E-033, -1.000000000000000000, -6.162975822039154700E-033 ) ) ;
#97 = LINE ( 'NONE', #216, #51 ) ;
#98 = PLANE ( 'NONE',  #160 ) ;
#99 = PRODUCT_CONTEXT ( 'NONE', #217, 'mechanical' ) ;
#100 = DIRECTION ( 'NONE',  ( 9.244463733058732100E-033, -1.000000000000000000, -6.162975822039154700E-033 ) ) ;
#101 = ORIENTED_EDGE ( 'NONE', *, *, #187, .F. ) ;
#102 = LINE ( 'NONE', #174, #55 ) ;
#103 = AXIS2_PLACEMENT_3D ( 'NONE', #2, #161, #17 ) ;
#104 = CIRCLE ( 'NONE', #70, 0.3622047244094489500 ) ;
#105 = CIRCLE ( 'NONE', #189, 0.4625984251968506800 ) ;
#106 = CARTESIAN_POINT ( 'NONE',  ( 0.0000000000000000000, 0.0000000000000000000, 0.0000000000000000000 ) ) ;
#107 = AXIS2_PLACEMENT_3D ( 'NONE', #113, #82, #201 ) ;
#108 = CIRCLE ( 'NONE', #28, 0.4625984251968506800 ) ;
#109 = LENGTH_MEASURE_WITH_UNIT ( LENGTH_MEASURE( 0.02539999999999999900 ), #166 );
#110 = ORIENTED_EDGE ( 'NONE', *, *, #84, .T. ) ;
#111 = VECTOR ( 'NONE', #46, 39.37007874015748100 ) ;
#112 = MECHANICAL_DESIGN_GEOMETRIC_PRESENTATION_REPRESENTATION (  '', ( #86 ), #124 ) ;
#113 = CARTESIAN_POINT ( 'NONE',  ( 0.0000000000000000000, 0.0000000000000000000, 0.0000000000000000000 ) ) ;
#114 = DIRECTION ( 'NONE',  ( 9.244463733058732100E-033, -1.000000000000000000, -6.162975822039154700E-033 ) ) ;
#115 = ORIENTED_EDGE ( 'NONE', *, *, #31, .T. ) ;
#116 = FILL_AREA_STYLE_COLOUR ( '', #9 ) ;
#117 = FILL_AREA_STYLE_COLOUR ( '', #79 ) ;
#118 = DIRECTION ( 'NONE',  ( 9.244463733058733500E-033, -1.000000000000000000, 6.162975822039152700E-033 ) ) ;
#119 = APPLICATION_PROTOCOL_DEFINITION ( 'draft international standard', 'automotive_design', 1998, #219 ) ;
#120 = CARTESIAN_POINT ( 'NONE',  ( -4.949947815597446100E-034, -2.232258959163788500E-033, -0.3622047244094489500 ) ) ;
#121 = UNCERTAINTY_MEASURE_WITH_UNIT (LENGTH_MEASURE( 1.000000000000000100E-005 ), #67, 'distance_accuracy_value', 'NONE');
#122 = EDGE_LOOP ( 'NONE', ( #110, #35 ) ) ;
#123 = PRODUCT_DEFINITION ( 'UNKNOWN', '', #132, #149 ) ;
#124 =( GEOMETRIC_REPRESENTATION_CONTEXT ( 3 ) GLOBAL_UNCERTAINTY_ASSIGNED_CONTEXT ( ( #121 ) ) GLOBAL_UNIT_ASSIGNED_CONTEXT ( ( #67, #181, #81 ) ) REPRESENTATION_CONTEXT ( 'NONE', 'WORKASPACE' ) );
#125 = DIMENSIONAL_EXPONENTS ( 1.000000000000000000, 0.0000000000000000000, 0.0000000000000000000, 0.0000000000000000000, 0.0000000000000000000, 0.0000000000000000000, 0.0000000000000000000 ) ;
#126 = VERTEX_POINT ( 'NONE', #64 ) ;
#127 = CARTESIAN_POINT ( 'NONE',  ( -4.949947815597446100E-034, 2.047244094488189300, -0.3622047244094489500 ) ) ;
#128 = DIRECTION ( 'NONE',  ( -1.366616027349729200E-033, -6.162975822039152700E-033, -1.000000000000000000 ) ) ;
#129 = DIRECTION ( 'NONE',  ( -1.366616027349729200E-033, -6.162975822039152700E-033, -1.000000000000000000 ) ) ;
#130 = VERTEX_POINT ( 'NONE', #80 ) ;
#131 = CARTESIAN_POINT ( 'NONE',  ( 0.0000000000000000000, 0.0000000000000000000, 0.0000000000000000000 ) ) ;
#132 = PRODUCT_DEFINITION_FORMATION_WITH_SPECIFIED_SOURCE ( 'ANY', '', #85, .NOT_KNOWN. ) ;
#133 = SURFACE_SIDE_STYLE ('',( #93 ) ) ;
#134 = DIRECTION ( 'NONE',  ( -1.366616027349728900E-033, -6.162975822039152000E-033, -1.000000000000000000 ) ) ;
#135 = DIRECTION ( 'NONE',  ( -9.244463733058732100E-033, 1.000000000000000000, 6.162975822039154700E-033 ) ) ;
#136 = EDGE_CURVE ( 'NONE', #77, #202, #97, .T. ) ;
#137 = MANIFOLD_SOLID_BREP ( 'Rivoluzione1', #157 ) ;
#138 = ORIENTED_EDGE ( 'NONE', *, *, #163, .T. ) ;
#139 = DIRECTION ( 'NONE',  ( -9.244463733058732100E-033, 1.000000000000000000, 6.162975822039154700E-033 ) ) ;
#140 = ORIENTED_EDGE ( 'NONE', *, *, #49, .F. ) ;
#141 = FACE_OUTER_BOUND ( 'NONE', #171, .T. ) ;
#142 = ADVANCED_FACE ( 'NONE', ( #4, #199 ), #98, .T. ) ;
#143 = DIRECTION ( 'NONE',  ( -9.244463733058732100E-033, 1.000000000000000000, 6.162975822039154700E-033 ) ) ;
#144 = PRODUCT_RELATED_PRODUCT_CATEGORY ( 'part', '', ( #85 ) ) ;
#145 = CYLINDRICAL_SURFACE ( 'NONE', #103, 0.4625984251968506800 ) ;
#146 = EDGE_LOOP ( 'NONE', ( #182, #39, #73, #101 ) ) ;
#147 = AXIS2_PLACEMENT_3D ( 'NONE', #197, #94, #213 ) ;
#148 = DIRECTION ( 'NONE',  ( 9.244463733058732100E-033, -1.000000000000000000, -6.162975822039154700E-033 ) ) ;
#149 = PRODUCT_DEFINITION_CONTEXT ( 'detailed design', #219, 'design' ) ;
#150 = PRESENTATION_STYLE_ASSIGNMENT (( #43 ) ) ;
#151 = SURFACE_SIDE_STYLE ('',( #184 ) ) ;
#152 =( LENGTH_UNIT ( ) NAMED_UNIT ( * ) SI_UNIT ( $, .METRE. ) );
#153 = DIRECTION ( 'NONE',  ( 9.244463733058732100E-033, -1.000000000000000000, -6.162975822039154700E-033 ) ) ;
#154 = ORIENTED_EDGE ( 'NONE', *, *, #187, .T. ) ;
#155 = LINE ( 'NONE', #120, #61 ) ;
#156 = CIRCLE ( 'NONE', #194, 0.3622047244094489500 ) ;
#157 = CLOSED_SHELL ( 'NONE', ( #159, #72, #87, #142, #209, #223 ) ) ;
#158 = CIRCLE ( 'NONE', #169, 0.3622047244094489500 ) ;
#159 = ADVANCED_FACE ( 'NONE', ( #203 ), #196, .T. ) ;
#160 = AXIS2_PLACEMENT_3D ( 'NONE', #7, #118, #10 ) ;
#161 = DIRECTION ( 'NONE',  ( 9.244463733058732100E-033, -1.000000000000000000, -6.162975822039154700E-033 ) ) ;
#162 = ORIENTED_EDGE ( 'NONE', *, *, #163, .F. ) ;
#163 = EDGE_CURVE ( 'NONE', #45, #53, #16, .T. ) ;
#164 = EDGE_LOOP ( 'NONE', ( #23, #12, #138, #210 ) ) ;
#165 =( CONVERSION_BASED_UNIT ( 'INCH', #40 ) LENGTH_UNIT ( ) NAMED_UNIT ( #125 ) );
#166 =( LENGTH_UNIT ( ) NAMED_UNIT ( * ) SI_UNIT ( $, .METRE. ) );
#167 =( NAMED_UNIT ( * ) PLANE_ANGLE_UNIT ( ) SI_UNIT ( $, .RADIAN. ) );
#168 = CARTESIAN_POINT ( 'NONE',  ( 0.0000000000000000000, 0.0000000000000000000, 0.0000000000000000000 ) ) ;
#169 = AXIS2_PLACEMENT_3D ( 'NONE', #11, #135, #27 ) ;
#170 = ORIENTED_EDGE ( 'NONE', *, *, #204, .F. ) ;
#171 = EDGE_LOOP ( 'NONE', ( #173, #29, #154, #222 ) ) ;
#172 = DIRECTION ( 'NONE',  ( 9.244463733058732100E-033, -1.000000000000000000, -6.162975822039154700E-033 ) ) ;
#173 = ORIENTED_EDGE ( 'NONE', *, *, #136, .F. ) ;
#174 = CARTESIAN_POINT ( 'NONE',  ( 5.665196807079295100E-017, 2.850982909801578900E-033, 0.4625984251968506800 ) ) ;
#175 = AXIS2_PLACEMENT_3D ( 'NONE', #26, #153, #134 ) ;
#176 = CARTESIAN_POINT ( 'NONE',  ( 4.435728563840806800E-017, -2.232258959163787800E-033, 0.3622047244094488400 ) ) ;
#177 = CARTESIAN_POINT ( 'NONE',  ( 0.3622047244094486800, 2.047244094488189300, 0.0000000000000000000 ) ) ;
#178 = DIRECTION ( 'NONE',  ( -1.366616027349729200E-033, 0.0000000000000000000, -1.000000000000000000 ) ) ;
#179 =( NAMED_UNIT ( * ) SI_UNIT ( $, .STERADIAN. ) SOLID_ANGLE_UNIT ( ) );
#180 = EDGE_CURVE ( 'NONE', #202, #126, #158, .T. ) ;
#181 =( NAMED_UNIT ( * ) PLANE_ANGLE_UNIT ( ) SI_UNIT ( $, .RADIAN. ) );
#182 = ORIENTED_EDGE ( 'NONE', *, *, #195, .F. ) ;
#183 = SHAPE_DEFINITION_REPRESENTATION ( #207, #32 ) ;
#184 = SURFACE_STYLE_FILL_AREA ( #24 ) ;
#185 = EDGE_LOOP ( 'NONE', ( #140, #221 ) ) ;
#186 = FACE_BOUND ( 'NONE', #122, .T. ) ;
#187 = EDGE_CURVE ( 'NONE', #205, #126, #155, .T. ) ;
#188 = DIRECTION ( 'NONE',  ( 9.244463733058732100E-033, -1.000000000000000000, -6.162975822039154700E-033 ) ) ;
#189 = AXIS2_PLACEMENT_3D ( 'NONE', #21, #148, #41 ) ;
#190 = DIMENSIONAL_EXPONENTS ( 1.000000000000000000, 0.0000000000000000000, 0.0000000000000000000, 0.0000000000000000000, 0.0000000000000000000, 0.0000000000000000000, 0.0000000000000000000 ) ;
#191 = CARTESIAN_POINT ( 'NONE',  ( 0.0000000000000000000, 0.0000000000000000000, 0.0000000000000000000 ) ) ;
#192 = DIRECTION ( 'NONE',  ( -1.366616027349728900E-033, 0.0000000000000000000, -1.000000000000000000 ) ) ;
#193 = FACE_OUTER_BOUND ( 'NONE', #146, .T. ) ;
#194 = AXIS2_PLACEMENT_3D ( 'NONE', #168, #139, #129 ) ;
#195 = EDGE_CURVE ( 'NONE', #77, #205, #69, .T. ) ;
#196 = CYLINDRICAL_SURFACE ( 'NONE', #175, 0.4625984251968506800 ) ;
#197 = CARTESIAN_POINT ( 'NONE',  ( 0.0000000000000000000, 2.047244094488189300, 0.0000000000000000000 ) ) ;
#198 = DIRECTION ( 'NONE',  ( -9.244463733058733500E-033, 1.000000000000000000, -6.162975822039152700E-033 ) ) ;
#199 = FACE_OUTER_BOUND ( 'NONE', #185, .T. ) ;
#200 = APPLICATION_PROTOCOL_DEFINITION ( 'draft international standard', 'automotive_design', 1998, #217 ) ;
#201 = DIRECTION ( 'NONE',  ( 1.000000000000000000, 0.0000000000000000000, 0.0000000000000000000 ) ) ;
#202 = VERTEX_POINT ( 'NONE', #176 ) ;
#203 = FACE_OUTER_BOUND ( 'NONE', #88, .T. ) ;
#204 = EDGE_CURVE ( 'NONE', #45, #130, #105, .T. ) ;
#205 = VERTEX_POINT ( 'NONE', #127 ) ;
#206 = LENGTH_MEASURE_WITH_UNIT ( LENGTH_MEASURE( 0.02539999999999999900 ), #152 );
#207 = PRODUCT_DEFINITION_SHAPE ( 'NONE', 'NONE',  #123 ) ;
#208 = EDGE_CURVE ( 'NONE', #130, #47, #102, .T. ) ;
#209 = ADVANCED_FACE ( 'NONE', ( #13, #186 ), #78, .T. ) ;
#210 = ORIENTED_EDGE ( 'NONE', *, *, #49, .T. ) ;
#211 = DIRECTION ( 'NONE',  ( -9.244463733058732100E-033, 1.000000000000000000, 6.162975822039154700E-033 ) ) ;
#212 = CARTESIAN_POINT ( 'NONE',  ( 0.0000000000000000000, 2.047244094488189300, 0.0000000000000000000 ) ) ;
#213 = DIRECTION ( 'NONE',  ( -1.366616027349729200E-033, 0.0000000000000000000, -1.000000000000000000 ) ) ;
#214 = ORIENTED_EDGE ( 'NONE', *, *, #208, .T. ) ;
#215 =( GEOMETRIC_REPRESENTATION_CONTEXT ( 3 ) GLOBAL_UNCERTAINTY_ASSIGNED_CONTEXT ( ( #75 ) ) GLOBAL_UNIT_ASSIGNED_CONTEXT ( ( #165, #65, #179 ) ) REPRESENTATION_CONTEXT ( 'NONE', 'WORKASPACE' ) );
#216 = CARTESIAN_POINT ( 'NONE',  ( 4.435728563840809300E-017, 2.232258959163788800E-033, 0.3622047244094489500 ) ) ;
#217 = APPLICATION_CONTEXT ( 'automotive_design' ) ;
#218 = CARTESIAN_POINT ( 'NONE',  ( -6.321944221007608100E-034, -2.850982909801577900E-033, -0.4625984251968506800 ) ) ;
#219 = APPLICATION_CONTEXT ( 'automotive_design' ) ;
#220 = UNCERTAINTY_MEASURE_WITH_UNIT (LENGTH_MEASURE( 1.000000000000000100E-005 ), #44, 'distance_accuracy_value', 'NONE');
#221 = ORIENTED_EDGE ( 'NONE', *, *, #52, .F. ) ;
#222 = ORIENTED_EDGE ( 'NONE', *, *, #180, .F. ) ;
#223 = ADVANCED_FACE ( 'NONE', ( #141 ), #48, .F. ) ;
ENDSEC;
END-ISO-10303-21;
